  0
SECTION
  2
HEADER
  9
$ACADVER
  1
AC1014
999
I-DEAS 13 NX
  9
$EXTMIN
 10
0.0
 20
0.0
  9
$EXTMAX
 10
4.4E+001
 20
6.6E+001
  9
$TEXTSIZE
 40
1.25E-001
  9
$LTSCALE
 40
1.0
  9
$CLAYER
  8
V1L1
  9
$CECOLOR
 62
1
  9
$DIMASZ
 40
1.25E-001
  9
$DIMEXO
 40
6.25E-002
  9
$DIMDLI
 40
2.5E-001
  9
$DIMEXE
 40
1.25E-001
  9
$DIMTP
 40
5.0E-003
  9
$DIMTM
 40
-5.0E-003
  9
$DIMTXT
 40
1.25E-001
  9
$DIMLIM
 70
0
  9
$DIMTIH
 70
1
  9
$DIMTOH
 70
1
  9
$DIMSE1
 70
0
  9
$DIMSE2
 70
0
  9
$DIMTAD
 70
0
  9
$DIMASO
 70
1
  9
$DIMALT
 70
0
  9
$DIMALTD
 70
0
  9
$DIMTOFL
 70
1
  9
$DIMTIX
 70
0
  9
$DIMSAH
 70
0
  9
$DIMSTYLE
  2
DSTYLE1
  9
$DIMTFAC
 40
1.0
  9
$DIMGAP
 40
6.25E-002
  9
$LUNITS
 70
2
  9
$LUPREC
 70
3
  9
$FILLETRAD
 40
2.5E-001
  9
$AUNITS
 70
0
  9
$AUPREC
 70
1
  9
$CHAMFERA
 40
2.5E-001
  9
$CHAMFERB
 40
2.5E-001
  9
$ANGBASE
 50
0.0
  9
$ANGDIR
 70
0
  9
$PEXTMIN
 10
0.0
 20
0.0
 30
0.0
  9
$PEXTMAX
 10
4.4E+001
 20
6.6E+001
 30
0.0
  9
$PLIMMIN
 10
0.0
 20
0.0
  9
$PLIMMAX
 10
4.4E+001
 20
6.6E+001
  9
$PDMODE
 70
2
  9
$PDSIZE
 40
-1.0E-002
  9
$SPLINETYPE
 70
6
  9
$TILEMODE
 70
1
  9
$HANDLING
 70
1
  9
$HANDSEED
  5
f4240
  0
ENDSEC
  0
SECTION
  2
TABLES
  0
TABLE
  2
VPORT
  5
64
100
AcDbSymbolTable
 70
2
  0
VPORT
  5
65
100
AcDbSymbolTableRecord
100
AcDbViewportTableRecord
  2
*Active
 70
0
 10
0.0
 20
0.0
 11
4.4E+001
 21
6.6E+001
 12
2.2E+001
 22
3.3E+001
 13
0.0
 23
0.0
 14
1.0
 24
1.0
 15
0.0
 25
0.0
 16
0.0
 26
0.0
 36
1.0
 17
0.0
 27
0.0
 37
0.0
 40
6.6E+001
 41
6.6666667E-001
 42
5.0E+001
 43
0.0
 44
0.0
 50
0.0
 51
0.0
 71
0
 72
1000
 73
1
 74
3
 75
0
 76
0
 77
0
 78
0
  0
ENDTAB
  0
TABLE
  2
LTYPE
  5
66
100
AcDbSymbolTable
 70
7
  0
LTYPE
  5
67
100
AcDbSymbolTableRecord
100
AcDbLinetypeTableRecord
  2
BYBLOCK
 70
0
  3

 72
65
 73
0
 40
0.0
  0
LTYPE
  5
68
100
AcDbSymbolTableRecord
100
AcDbLinetypeTableRecord
  2
BYLAYER
 70
0
  3

 72
65
 73
0
 40
0.0
  0
LTYPE
  5
69
100
AcDbSymbolTableRecord
100
AcDbLinetypeTableRecord
  2
CONTINUOUS
 70
0
  3

 72
65
 73
0
 40
0.0
  0
LTYPE
  5
6a
100
AcDbSymbolTableRecord
100
AcDbLinetypeTableRecord
  2
HIDDENNEW0
  3
_ 
 70
64
 72
65
 73
3
 40
1.875E-001
 49
6.25E-002
 74
0
 49
-6.25E-002
 74
0
 49
6.25E-002
 74
0
  0
LTYPE
  5
6b
100
AcDbSymbolTableRecord
100
AcDbLinetypeTableRecord
  2
HIDDENNEW1
  3
_ 
 70
64
 72
65
 73
3
 40
1.875E-001
 49
6.25E-002
 74
0
 49
-6.25E-002
 74
0
 49
6.25E-002
 74
0
  0
LTYPE
  5
6c
100
AcDbSymbolTableRecord
100
AcDbLinetypeTableRecord
  2
HIDDEN
  3
_ 
 70
64
 72
65
 73
3
 40
1.875E-001
 49
6.25E-002
 74
0
 49
-6.25E-002
 74
0
 49
6.25E-002
 74
0
  0
LTYPE
  5
6d
100
AcDbSymbolTableRecord
100
AcDbLinetypeTableRecord
  2
CENTERLINE
  3
_ 
 70
64
 72
65
 73
5
 40
1.25
 49
5.0E-001
 74
0
 49
-6.25E-002
 74
0
 49
1.25E-001
 74
0
 49
-6.25E-002
 74
0
 49
5.0E-001
 74
0
  0
LTYPE
  5
6e
100
AcDbSymbolTableRecord
100
AcDbLinetypeTableRecord
  2
PHANTOM
  3
_ 
 70
64
 72
65
 73
7
 40
1.1875
 49
3.75E-001
 74
0
 49
-6.25E-002
 74
0
 49
1.25E-001
 74
0
 49
-6.25E-002
 74
0
 49
1.25E-001
 74
0
 49
-6.25E-002
 74
0
 49
3.75E-001
 74
0
  0
LTYPE
  5
6f
100
AcDbSymbolTableRecord
100
AcDbLinetypeTableRecord
  2
SHORT_DASH
  3
_ 
 70
64
 72
65
 73
3
 40
1.25E-001
 49
3.125E-002
 74
0
 49
-6.25E-002
 74
0
 49
3.125E-002
 74
0
  0
LTYPE
  5
70
100
AcDbSymbolTableRecord
100
AcDbLinetypeTableRecord
  2
LONG_DASH
  3
_ 
 70
64
 72
65
 73
3
 40
3.75E-001
 49
9.375E-002
 74
0
 49
-1.875E-001
 74
0
 49
9.375E-002
 74
0
  0
ENDTAB
  0
TABLE
  2
LAYER
  5
71
100
AcDbSymbolTable
 70
258
  0
LAYER
  5
72
100
AcDbSymbolTableRecord
100
AcDbLayerTableRecord
  2
0
 70
0
 62
7
  6
CONTINUOUS
  0
LAYER
  5
73
100
AcDbSymbolTableRecord
100
AcDbLayerTableRecord
  2
V1L0
 70
0
 62
7
  6
CONTINUOUS
  0
LAYER
  5
74
100
AcDbSymbolTableRecord
100
AcDbLayerTableRecord
  2
V2L0
 70
0
 62
7
  6
CONTINUOUS
  0
LAYER
  5
75
100
AcDbSymbolTableRecord
100
AcDbLayerTableRecord
  2
Drafting_Hidden_Entities
 70
1
 62
7
  6
CONTINUOUS
  0
ENDTAB
  0
TABLE
  2
STYLE
  5
76
100
AcDbSymbolTable
 70
1
  0
STYLE
  5
77
100
AcDbSymbolTableRecord
100
AcDbTextStyleTableRecord
  2
STANDARD
 70
64
 40
0.0
 41
1.0
 50
0.0
 71
0
 42
1.0
  3
monotxt.shx
  4

  0
ENDTAB
  0
TABLE
  2
VIEW
  5
78
100
AcDbSymbolTable
 70
0
  0
ENDTAB
  0
TABLE
  2
UCS
  5
79
100
AcDbSymbolTable
 70
0
  0
ENDTAB
  0
TABLE
  2
APPID
  5
7a
100
AcDbSymbolTable
 70
1
  0
APPID
  5
7b
100
AcDbSymbolTableRecord
100
AcDbRegAppTableRecord
  2
ACAD
 70
1
  0
ENDTAB
  0
TABLE
  2
DIMSTYLE
  5
7c
100
AcDbSymbolTable
 70
0
  0
ENDTAB
  0
TABLE
  2
BLOCK_RECORD
  5
7d
100
AcDbSymbolTable
 70
0
  0
BLOCK_RECORD
  5
7e
100
AcDbSymbolTableRecord
100
AcDbBlockTableRecord
  2
*MODEL_SPACE
  0
BLOCK_RECORD
  5
7f
100
AcDbSymbolTableRecord
100
AcDbBlockTableRecord
  2
*PAPER_SPACE
  0
BLOCK_RECORD
  5
80
100
AcDbSymbolTableRecord
100
AcDbBlockTableRecord
  2
_AH1
  0
BLOCK_RECORD
  5
81
100
AcDbSymbolTableRecord
100
AcDbBlockTableRecord
  2
_AH2
  0
BLOCK_RECORD
  5
82
100
AcDbSymbolTableRecord
100
AcDbBlockTableRecord
  2
_AH12
  3
_AH
  0
BLOCK_RECORD
  5
83
100
AcDbSymbolTableRecord
100
AcDbBlockTableRecord
  2
_AH13
  3
_AH
  0
BLOCK_RECORD
  5
84
100
AcDbSymbolTableRecord
100
AcDbBlockTableRecord
  2
_AH14
  3
_AH
  0
BLOCK_RECORD
  5
85
100
AcDbSymbolTableRecord
100
AcDbBlockTableRecord
  2
_AH15
  3
_AH
  0
BLOCK_RECORD
  5
86
100
AcDbSymbolTableRecord
100
AcDbBlockTableRecord
  2
_AH16
  3
_AH
  0
BLOCK_RECORD
  5
87
100
AcDbSymbolTableRecord
100
AcDbBlockTableRecord
  2
_AH17
  3
_AH
  0
BLOCK_RECORD
  5
88
100
AcDbSymbolTableRecord
100
AcDbBlockTableRecord
  2
_AH18
  3
_AH
  0
BLOCK_RECORD
  5
89
100
AcDbSymbolTableRecord
100
AcDbBlockTableRecord
  2
_AH19
  3
_AH
  0
BLOCK_RECORD
  5
8a
100
AcDbSymbolTableRecord
100
AcDbBlockTableRecord
  2
_AH20
  3
_AH
  0
BLOCK_RECORD
  5
8b
100
AcDbSymbolTableRecord
100
AcDbBlockTableRecord
  2
_AH21
  3
_AH
  0
BLOCK_RECORD
  5
8c
100
AcDbSymbolTableRecord
100
AcDbBlockTableRecord
  2
POINTSYMBOL
  0
BLOCK_RECORD
  5
8d
100
AcDbSymbolTableRecord
100
AcDbBlockTableRecord
  2
*TX26
  3
*TX
  0
BLOCK_RECORD
  5
8e
100
AcDbSymbolTableRecord
100
AcDbBlockTableRecord
  2
*VIEW1
  0
ENDTAB
  0
ENDSEC
  0
SECTION
  2
BLOCKS
  0
BLOCK
  5
8f
100
AcDbEntity
100
AcDbBlockBegin
  2
*MODEL_SPACE
 70
0
 10
0.0
 20
0.0
 30
0.0
  3
*MODEL_SPACE
  1

  0
ENDBLK
  5
90
100
AcDbEntity
100
AcDbBlockEnd
  0
BLOCK
  5
91
100
AcDbEntity
100
AcDbBlockBegin
  2
*PAPER_SPACE
 70
0
 10
0.0
 20
0.0
 30
0.0
  3
*PAPER_SPACE
  1

  0
ENDBLK
  5
92
100
AcDbEntity
100
AcDbBlockEnd
  0
BLOCK
  5
93
100
AcDbEntity
100
AcDbBlockBegin
  2
*VIEW1
  3
*VIEW
 10
0.0
 20
0.0
 70
65
  0
TEXT
  5
94
100
AcDbEntity
  8
V0L1
100
AcDbText
  6
CONTINUOUS
 62
211
 10
0.0
 20
0.0
 40
1.0
  1
BV1XL0.0YL0.0XH4.4E+001YH6.6E+001
 41
1.25E-001
 50
1.0
 51
1.0
100
AcDbText
  0
TEXT
  5
95
100
AcDbEntity
  8
V0L1
100
AcDbText
  6
CONTINUOUS
 62
211
 10
0.0
 20
0.0
 40
1.0
  1
DV1X0.0Y0.0S1.0N1-MAIN
 41
1.25E-001
 50
1.0
 51
1.0
100
AcDbText
  0
ENDBLK
  5
96
100
AcDbEntity
100
AcDbBlockEnd
  0
BLOCK
  5
97
100
AcDbEntity
100
AcDbBlockBegin
  2
_AH12
  3
_AH
 10
0.0
 20
0.0
 70
64
  0
LINE
  5
98
100
AcDbEntity
  8
V0L1
100
AcDbLine
  6
CONTINUOUS
 62
0
 10
0.0
 20
0.0
 11
1.0
 21
0.0
  0
LINE
  5
99
100
AcDbEntity
  8
V0L1
100
AcDbLine
  6
CONTINUOUS
 62
0
 10
0.0
 20
0.0
 11
-1.0
 21
0.0
  0
ENDBLK
  5
9a
100
AcDbEntity
100
AcDbBlockEnd
  0
BLOCK
  5
9b
100
AcDbEntity
100
AcDbBlockBegin
  2
_AH13
  3
_AH
 10
0.0
 20
0.0
 70
64
  0
SOLID
  5
9c
100
AcDbEntity
  8
V0L1
100
AcDbTrace
  6
CONTINUOUS
 62
0
 10
0.0
 20
0.0
 11
1.0
 21
-1.66667E-001
 12
1.0
 22
1.66667E-001
 13
0.0
 23
0.0
  0
ENDBLK
  5
9d
100
AcDbEntity
100
AcDbBlockEnd
  0
BLOCK
  5
9e
100
AcDbEntity
100
AcDbBlockBegin
  2
_AH14
  3
_AH
 10
0.0
 20
0.0
 70
64
  0
ENDBLK
  5
9f
100
AcDbEntity
100
AcDbBlockEnd
  0
BLOCK
  5
a0
100
AcDbEntity
100
AcDbBlockBegin
  2
_AH15
  3
_AH
 10
0.0
 20
0.0
 70
64
  0
CIRCLE
  5
a1
100
AcDbEntity
  8
V0L1
100
AcDbCircle
  6
CONTINUOUS
 62
0
 10
0.0
 20
0.0
 40
1.66667E-001
  0
LINE
  5
a2
100
AcDbEntity
  8
V0L1
100
AcDbLine
  6
CONTINUOUS
 62
0
 10
0.0
 20
0.0
 11
-1.0
 21
0.0
  0
ENDBLK
  5
a3
100
AcDbEntity
100
AcDbBlockEnd
  0
BLOCK
  5
a4
100
AcDbEntity
100
AcDbBlockBegin
  2
_AH16
  3
_AH
 10
0.0
 20
0.0
 70
64
  0
POLYLINE
  5
a5
100
AcDbEntity
  8
V0L1
100
AcDb2dPolyline
  6
CONTINUOUS
 62
0
 66
1
 40
9.375E-002
 41
9.375E-002
 70
0
  0
VERTEX
  5
a6
100
AcDbEntity
  8
V0L1
100
AcDbVertex
100
AcDb2dVertex
 42
1.0
 10
8.3335E-002
 20
0.0
 70
0
  0
VERTEX
  5
a7
100
AcDbEntity
  8
V0L1
100
AcDbVertex
100
AcDb2dVertex
 42
1.0
 10
-8.3335E-002
 20
0.0
 70
0
  0
VERTEX
  5
a8
100
AcDbEntity
  8
V0L1
100
AcDbVertex
100
AcDb2dVertex
 42
0.0
 10
8.3335E-002
 20
0.0
 70
0
  0
SEQEND
  5
a9
100
AcDbEntity
  0
LINE
  5
aa
100
AcDbEntity
  8
V0L1
100
AcDbLine
  6
CONTINUOUS
 62
0
 10
0.0
 20
0.0
 11
-1.0
 21
0.0
  0
ENDBLK
  5
ab
100
AcDbEntity
100
AcDbBlockEnd
  0
BLOCK
  5
ac
100
AcDbEntity
100
AcDbBlockBegin
  2
_AH17
  3
_AH
 10
0.0
 20
0.0
 70
64
  0
LINE
  5
ad
100
AcDbEntity
  8
V0L1
100
AcDbLine
  6
CONTINUOUS
 62
0
 10
-1.66667E-001
 20
-1.66667E-001
 11
1.66667E-001
 21
-1.66667E-001
  0
LINE
  5
ae
100
AcDbEntity
  8
V0L1
100
AcDbLine
  6
CONTINUOUS
 62
0
 10
1.66667E-001
 20
-1.66667E-001
 11
1.66667E-001
 21
1.66667E-001
  0
LINE
  5
af
100
AcDbEntity
  8
V0L1
100
AcDbLine
  6
CONTINUOUS
 62
0
 10
1.66667E-001
 20
1.66667E-001
 11
-1.66667E-001
 21
1.66667E-001
  0
LINE
  5
b0
100
AcDbEntity
  8
V0L1
100
AcDbLine
  6
CONTINUOUS
 62
0
 10
-1.66667E-001
 20
1.66667E-001
 11
-1.66667E-001
 21
-1.66667E-001
  0
LINE
  5
b1
100
AcDbEntity
  8
V0L1
100
AcDbLine
  6
CONTINUOUS
 62
0
 10
0.0
 20
0.0
 11
-1.0
 21
0.0
  0
ENDBLK
  5
b2
100
AcDbEntity
100
AcDbBlockEnd
  0
BLOCK
  5
b3
100
AcDbEntity
100
AcDbBlockBegin
  2
_AH18
  3
_AH
 10
0.0
 20
0.0
 70
64
  0
SOLID
  5
b4
100
AcDbEntity
  8
V0L1
100
AcDbTrace
  6
CONTINUOUS
 62
0
 10
-1.66667E-001
 20
-1.66667E-001
 11
1.66667E-001
 21
-1.66667E-001
 12
-1.66667E-001
 22
1.66667E-001
 13
1.66667E-001
 23
1.66667E-001
  0
LINE
  5
b5
100
AcDbEntity
  8
V0L1
100
AcDbLine
  6
CONTINUOUS
 62
0
 10
0.0
 20
0.0
 11
-1.0
 21
0.0
  0
ENDBLK
  5
b6
100
AcDbEntity
100
AcDbBlockEnd
  0
BLOCK
  5
b7
100
AcDbEntity
100
AcDbBlockBegin
  2
_AH19
  3
_AH
 10
0.0
 20
0.0
 70
64
  0
LINE
  5
b8
100
AcDbEntity
  8
V0L1
100
AcDbLine
  6
CONTINUOUS
 62
0
 10
-5.0E-001
 20
-5.0E-001
 11
5.0E-001
 21
5.0E-001
  0
LINE
  5
b9
100
AcDbEntity
  8
V0L1
100
AcDbLine
  6
CONTINUOUS
 62
0
 10
0.0
 20
0.0
 11
-1.0
 21
0.0
  0
ENDBLK
  5
ba
100
AcDbEntity
100
AcDbBlockEnd
  0
BLOCK
  5
bb
100
AcDbEntity
100
AcDbBlockBegin
  2
_AH20
  3
_AH
 10
0.0
 20
0.0
 70
64
  0
POLYLINE
  5
bc
100
AcDbEntity
  8
V0L1
100
AcDb2dPolyline
  6
CONTINUOUS
 62
0
 66
1
 40
2.0E-002
 41
2.0E-002
 70
0
  0
VERTEX
  5
bd
100
AcDbEntity
  8
V0L1
100
AcDbVertex
100
AcDb2dVertex
 42
4.1421356E-001
 10
-1.66667E-001
 20
-1.66667E-001
 70
0
  0
VERTEX
  5
be
100
AcDbEntity
  8
V0L1
100
AcDbVertex
100
AcDb2dVertex
 42
0.0
 10
0.0
 20
0.0
 70
0
  0
SEQEND
  5
bf
100
AcDbEntity
  0
POLYLINE
  5
c0
100
AcDbEntity
  8
V0L1
100
AcDb2dPolyline
  6
CONTINUOUS
 62
0
 66
1
 40
2.0E-002
 41
2.0E-002
 70
0
  0
VERTEX
  5
c1
100
AcDbEntity
  8
V0L1
100
AcDbVertex
100
AcDb2dVertex
 42
4.1421356E-001
 10
1.66667E-001
 20
1.66667E-001
 70
0
  0
VERTEX
  5
c2
100
AcDbEntity
  8
V0L1
100
AcDbVertex
100
AcDb2dVertex
 42
0.0
 10
0.0
 20
0.0
 70
0
  0
SEQEND
  5
c3
100
AcDbEntity
  0
LINE
  5
c4
100
AcDbEntity
  8
V0L1
100
AcDbLine
  6
CONTINUOUS
 62
0
 10
0.0
 20
0.0
 11
-1.0
 21
0.0
  0
ENDBLK
  5
c5
100
AcDbEntity
100
AcDbBlockEnd
  0
BLOCK
  5
c6
100
AcDbEntity
100
AcDbBlockBegin
  2
_AH21
  3
_AH
 10
0.0
 20
0.0
 70
64
  0
LINE
  5
c7
100
AcDbEntity
  8
V0L1
100
AcDbLine
  6
CONTINUOUS
 62
0
 10
0.0
 20
0.0
 11
-1.0
 21
-1.66667E-001
  0
LINE
  5
c8
100
AcDbEntity
  8
V0L1
100
AcDbLine
  6
CONTINUOUS
 62
0
 10
-1.0
 20
-1.66667E-001
 11
-1.0
 21
1.66667E-001
  0
LINE
  5
c9
100
AcDbEntity
  8
V0L1
100
AcDbLine
  6
CONTINUOUS
 62
0
 10
-1.0
 20
1.66667E-001
 11
0.0
 21
0.0
  0
ENDBLK
  5
ca
100
AcDbEntity
100
AcDbBlockEnd
  0
BLOCK
  5
cb
100
AcDbEntity
100
AcDbBlockBegin
  2
POINTSYMBOL
 10
0.0
 20
0.0
 70
0
  0
LINE
  5
cc
100
AcDbEntity
  8
V0L1
100
AcDbLine
  6
CONTINUOUS
 62
1
 10
0.0
 20
-5.0E-001
 11
0.0
 21
5.0E-001
  0
LINE
  5
cd
100
AcDbEntity
  8
V0L1
100
AcDbLine
  6
CONTINUOUS
 62
1
 10
-5.0E-001
 20
0.0
 11
5.0E-001
 21
0.0
  0
ENDBLK
  5
ce
100
AcDbEntity
100
AcDbBlockEnd
  0
BLOCK
  5
cf
100
AcDbEntity
100
AcDbBlockBegin
  2
*TX26
  3
*TX
 10
0.0
 20
0.0
 70
65
  0
TEXT
  5
d0
100
AcDbEntity
  8
V0L1
100
AcDbText
  6
CONTINUOUS
 62
1
 10
0.0
 20
0.0
 40
1.0
  1
      DXF-GA202040A
100
AcDbText
  0
TEXT
  5
d1
100
AcDbEntity
  8
V0L1
100
AcDbText
  6
CONTINUOUS
 62
1
 10
0.0
 20
-1.5
 40
1.0
  1
       KA6C6HL40LV
100
AcDbText
  0
TEXT
  5
d2
100
AcDbEntity
  8
V0L1
100
AcDbText
  6
CONTINUOUS
 62
1
 10
0.0
 20
-3.0
 40
1.0
  1
        5/4/16 DW-
100
AcDbText
  0
TEXT
  5
d3
100
AcDbEntity
  8
V0L1
100
AcDbText
  6
CONTINUOUS
 62
1
 10
0.0
 20
-4.5
 40
1.0
  1
     KOOLTRONIC, INC.
100
AcDbText
  0
TEXT
  5
d4
100
AcDbEntity
  8
V0L1
100
AcDbText
  6
CONTINUOUS
 62
1
 10
0.0
 20
-6.0
 40
1.0
  1
GEOMETRY IS SUBJECT TO CHANGE
100
AcDbText
  0
ENDBLK
  5
d5
100
AcDbEntity
100
AcDbBlockEnd
  0
BLOCK
  5
d6
100
AcDbEntity
100
AcDbBlockBegin
  2
_AH1
 70
0
 10
0.0
 20
0.0
  3
_AH1
  0
LINE
  5
d7
100
AcDbEntity
  8
V0L1
100
AcDbLine
  6
CONTINUOUS
 62
0
 10
-1.0
 20
1.66667E-001
 11
0.0
 21
0.0
  0
LINE
  5
d8
100
AcDbEntity
  8
V0L1
100
AcDbLine
  6
CONTINUOUS
 62
0
 10
0.0
 20
0.0
 11
-1.0
 21
-1.66667E-001
  0
LINE
  5
d9
100
AcDbEntity
  8
V0L1
100
AcDbLine
  6
CONTINUOUS
 62
0
 10
-1.0
 20
1.66667E-001
 11
-1.0
 21
-1.66667E-001
  0
LINE
  5
da
100
AcDbEntity
  8
V0L1
100
AcDbLine
  6
CONTINUOUS
 62
0
 10
0.0
 20
0.0
 11
-1.0
 21
0.0
  0
ENDBLK
  5
db
100
AcDbEntity
100
AcDbBlockEnd
  0
BLOCK
  5
dc
100
AcDbEntity
100
AcDbBlockBegin
  2
_AH2
 70
0
 10
0.0
 20
0.0
  3
_AH2
  0
LINE
  5
dd
100
AcDbEntity
  8
V0L1
100
AcDbLine
  6
CONTINUOUS
 62
0
 10
-1.0
 20
1.66667E-001
 11
0.0
 21
0.0
  0
LINE
  5
de
100
AcDbEntity
  8
V0L1
100
AcDbLine
  6
CONTINUOUS
 62
0
 10
0.0
 20
0.0
 11
-1.0
 21
-1.66667E-001
  0
LINE
  5
df
100
AcDbEntity
  8
V0L1
100
AcDbLine
  6
CONTINUOUS
 62
0
 10
0.0
 20
0.0
 11
-1.0
 21
0.0
  0
ENDBLK
  5
e0
100
AcDbEntity
100
AcDbBlockEnd
  0
ENDSEC
  0
SECTION
  2
ENTITIES
  0
LINE
  5
e1
100
AcDbEntity
  8
V1L2
100
AcDbLine
  6
HIDDEN
 62
1
 10
1.4387432E+001
 20
5.208063E+001
 11
1.4387432E+001
 21
3.808063E+001
  0
LINE
  5
e2
100
AcDbEntity
  8
V1L2
100
AcDbLine
  6
HIDDEN
 62
1
 10
2.4687432E+001
 20
5.208063E+001
 11
2.4687432E+001
 21
3.808063E+001
  0
CIRCLE
  5
e3
100
AcDbEntity
  8
V1L2
100
AcDbCircle
  6
CONTINUOUS
 62
1
 10
2.4239432E+001
 20
5.236663E+001
 40
1.56E-001
  0
CIRCLE
  5
e4
100
AcDbEntity
  8
V1L2
100
AcDbCircle
  6
CONTINUOUS
 62
1
 10
1.9539432E+001
 20
5.236663E+001
 40
1.56E-001
  0
CIRCLE
  5
e5
100
AcDbEntity
  8
V1L2
100
AcDbCircle
  6
CONTINUOUS
 62
1
 10
1.4839432E+001
 20
5.236663E+001
 40
1.56E-001
  0
CIRCLE
  5
e6
100
AcDbEntity
  8
V1L2
100
AcDbCircle
  6
CONTINUOUS
 62
1
 10
1.4157432E+001
 20
4.7700631E+001
 40
1.56E-001
  0
CIRCLE
  5
e7
100
AcDbEntity
  8
V1L2
100
AcDbCircle
  6
CONTINUOUS
 62
1
 10
1.4157432E+001
 20
4.1700631E+001
 40
1.56E-001
  0
CIRCLE
  5
e8
100
AcDbEntity
  8
V1L2
100
AcDbCircle
  6
CONTINUOUS
 62
1
 10
1.4157432E+001
 20
3.5700631E+001
 40
1.56E-001
  0
CIRCLE
  5
e9
100
AcDbEntity
  8
V1L2
100
AcDbCircle
  6
CONTINUOUS
 62
1
 10
1.4157432E+001
 20
2.970063E+001
 40
1.56E-001
  0
CIRCLE
  5
ea
100
AcDbEntity
  8
V1L2
100
AcDbCircle
  6
CONTINUOUS
 62
1
 10
1.4157432E+001
 20
2.370063E+001
 40
1.56E-001
  0
CIRCLE
  5
eb
100
AcDbEntity
  8
V1L2
100
AcDbCircle
  6
CONTINUOUS
 62
1
 10
1.4157432E+001
 20
1.7700631E+001
 40
1.56E-001
  0
CIRCLE
  5
ec
100
AcDbEntity
  8
V1L2
100
AcDbCircle
  6
CONTINUOUS
 62
1
 10
1.4839432E+001
 20
1.3034631E+001
 40
1.56E-001
  0
CIRCLE
  5
ed
100
AcDbEntity
  8
V1L2
100
AcDbCircle
  6
CONTINUOUS
 62
1
 10
1.9539432E+001
 20
1.3034631E+001
 40
1.56E-001
  0
CIRCLE
  5
ee
100
AcDbEntity
  8
V1L2
100
AcDbCircle
  6
CONTINUOUS
 62
1
 10
2.4239432E+001
 20
1.3034631E+001
 40
1.56E-001
  0
CIRCLE
  5
ef
100
AcDbEntity
  8
V1L2
100
AcDbCircle
  6
CONTINUOUS
 62
1
 10
2.4921432E+001
 20
1.7700631E+001
 40
1.56E-001
  0
CIRCLE
  5
f0
100
AcDbEntity
  8
V1L2
100
AcDbCircle
  6
CONTINUOUS
 62
1
 10
2.4921432E+001
 20
2.370063E+001
 40
1.56E-001
  0
CIRCLE
  5
f1
100
AcDbEntity
  8
V1L2
100
AcDbCircle
  6
CONTINUOUS
 62
1
 10
2.4921432E+001
 20
2.970063E+001
 40
1.56E-001
  0
CIRCLE
  5
f2
100
AcDbEntity
  8
V1L2
100
AcDbCircle
  6
CONTINUOUS
 62
1
 10
2.4921432E+001
 20
3.5700631E+001
 40
1.56E-001
  0
CIRCLE
  5
f3
100
AcDbEntity
  8
V1L2
100
AcDbCircle
  6
CONTINUOUS
 62
1
 10
2.4921432E+001
 20
4.1700631E+001
 40
1.56E-001
  0
CIRCLE
  5
f4
100
AcDbEntity
  8
V1L2
100
AcDbCircle
  6
CONTINUOUS
 62
1
 10
2.4921432E+001
 20
4.7700631E+001
 40
1.56E-001
  0
LINE
  5
f5
100
AcDbEntity
  8
V1L2
100
AcDbLine
  6
HIDDEN
 62
1
 10
1.4387432E+001
 20
5.208063E+001
 11
2.4687432E+001
 21
5.208063E+001
  0
LINE
  5
f6
100
AcDbEntity
  8
V1L2
100
AcDbLine
  6
HIDDEN
 62
1
 10
1.4387432E+001
 20
3.808063E+001
 11
2.4687432E+001
 21
3.808063E+001
  0
LINE
  5
f7
100
AcDbEntity
  8
V1L2
100
AcDbLine
  6
HIDDEN
 62
1
 10
1.4387432E+001
 20
2.5644631E+001
 11
1.4387432E+001
 21
1.4834631E+001
  0
LINE
  5
f8
100
AcDbEntity
  8
V1L2
100
AcDbLine
  6
HIDDEN
 62
1
 10
2.4687432E+001
 20
2.5644631E+001
 11
2.4687432E+001
 21
1.4834631E+001
  0
LINE
  5
f9
100
AcDbEntity
  8
V1L2
100
AcDbLine
  6
CONTINUOUS
 62
1
 10
2.5921432E+001
 20
1.7700631E+001
 11
2.3921432E+001
 21
1.7700631E+001
  0
LINE
  5
fa
100
AcDbEntity
  8
V1L2
100
AcDbLine
  6
CONTINUOUS
 62
1
 10
2.4921432E+001
 20
1.8700631E+001
 11
2.4921432E+001
 21
1.6700631E+001
  0
LINE
  5
fb
100
AcDbEntity
  8
V1L2
100
AcDbLine
  6
CONTINUOUS
 62
1
 10
2.6421432E+001
 20
1.7700631E+001
 11
2.6077432E+001
 21
1.7700631E+001
  0
LINE
  5
fc
100
AcDbEntity
  8
V1L2
100
AcDbLine
  6
CONTINUOUS
 62
1
 10
2.4921432E+001
 20
1.920063E+001
 11
2.4921432E+001
 21
1.8856631E+001
  0
LINE
  5
fd
100
AcDbEntity
  8
V1L2
100
AcDbLine
  6
CONTINUOUS
 62
1
 10
2.3421432E+001
 20
1.7700631E+001
 11
2.3765432E+001
 21
1.7700631E+001
  0
LINE
  5
fe
100
AcDbEntity
  8
V1L2
100
AcDbLine
  6
CONTINUOUS
 62
1
 10
2.4921432E+001
 20
1.6200631E+001
 11
2.4921432E+001
 21
1.6544631E+001
  0
LINE
  5
ff
100
AcDbEntity
  8
V1L2
100
AcDbLine
  6
CONTINUOUS
 62
1
 10
1.3733432E+001
 20
1.2700631E+001
 11
2.5355432E+001
 21
1.2700631E+001
  0
LINE
  5
100
100
AcDbEntity
  8
V1L2
100
AcDbLine
  6
CONTINUOUS
 62
1
 10
2.5355432E+001
 20
1.2700631E+001
 11
2.5355432E+001
 21
5.2700631E+001
  0
LINE
  5
101
100
AcDbEntity
  8
V1L2
100
AcDbLine
  6
CONTINUOUS
 62
1
 10
2.5355432E+001
 20
5.2700631E+001
 11
1.3733432E+001
 21
5.2700631E+001
  0
LINE
  5
102
100
AcDbEntity
  8
V1L2
100
AcDbLine
  6
CONTINUOUS
 62
1
 10
1.3733432E+001
 20
5.2700631E+001
 11
1.3733432E+001
 21
1.2700631E+001
  0
LINE
  5
103
100
AcDbEntity
  8
V1L2
100
AcDbLine
  6
CONTINUOUS
 62
1
 10
1.5839432E+001
 20
5.236663E+001
 11
1.3839432E+001
 21
5.236663E+001
  0
LINE
  5
104
100
AcDbEntity
  8
V1L2
100
AcDbLine
  6
CONTINUOUS
 62
1
 10
1.4839432E+001
 20
5.336663E+001
 11
1.4839432E+001
 21
5.136663E+001
  0
LINE
  5
105
100
AcDbEntity
  8
V1L2
100
AcDbLine
  6
CONTINUOUS
 62
1
 10
1.6339432E+001
 20
5.236663E+001
 11
1.5949432E+001
 21
5.236663E+001
  0
LINE
  5
106
100
AcDbEntity
  8
V1L2
100
AcDbLine
  6
CONTINUOUS
 62
1
 10
1.4839432E+001
 20
5.386663E+001
 11
1.4839432E+001
 21
5.347663E+001
  0
LINE
  5
107
100
AcDbEntity
  8
V1L2
100
AcDbLine
  6
CONTINUOUS
 62
1
 10
1.3339432E+001
 20
5.236663E+001
 11
1.3729432E+001
 21
5.236663E+001
  0
LINE
  5
108
100
AcDbEntity
  8
V1L2
100
AcDbLine
  6
CONTINUOUS
 62
1
 10
1.4839432E+001
 20
5.086663E+001
 11
1.4839432E+001
 21
5.1256631E+001
  0
LINE
  5
109
100
AcDbEntity
  8
V1L2
100
AcDbLine
  6
CONTINUOUS
 62
1
 10
2.0539432E+001
 20
5.236663E+001
 11
1.8539432E+001
 21
5.236663E+001
  0
LINE
  5
10a
100
AcDbEntity
  8
V1L2
100
AcDbLine
  6
CONTINUOUS
 62
1
 10
1.9539432E+001
 20
5.336663E+001
 11
1.9539432E+001
 21
5.136663E+001
  0
LINE
  5
10b
100
AcDbEntity
  8
V1L2
100
AcDbLine
  6
CONTINUOUS
 62
1
 10
2.1039432E+001
 20
5.236663E+001
 11
2.0649432E+001
 21
5.236663E+001
  0
LINE
  5
10c
100
AcDbEntity
  8
V1L2
100
AcDbLine
  6
CONTINUOUS
 62
1
 10
1.9539432E+001
 20
5.386663E+001
 11
1.9539432E+001
 21
5.347663E+001
  0
LINE
  5
10d
100
AcDbEntity
  8
V1L2
100
AcDbLine
  6
CONTINUOUS
 62
1
 10
1.8039432E+001
 20
5.236663E+001
 11
1.8429432E+001
 21
5.236663E+001
  0
LINE
  5
10e
100
AcDbEntity
  8
V1L2
100
AcDbLine
  6
CONTINUOUS
 62
1
 10
1.9539432E+001
 20
5.086663E+001
 11
1.9539432E+001
 21
5.1256631E+001
  0
LINE
  5
10f
100
AcDbEntity
  8
V1L2
100
AcDbLine
  6
CONTINUOUS
 62
1
 10
2.5239432E+001
 20
5.236663E+001
 11
2.3239432E+001
 21
5.236663E+001
  0
LINE
  5
110
100
AcDbEntity
  8
V1L2
100
AcDbLine
  6
CONTINUOUS
 62
1
 10
2.4239432E+001
 20
5.336663E+001
 11
2.4239432E+001
 21
5.136663E+001
  0
LINE
  5
111
100
AcDbEntity
  8
V1L2
100
AcDbLine
  6
CONTINUOUS
 62
1
 10
2.5739432E+001
 20
5.236663E+001
 11
2.5349432E+001
 21
5.236663E+001
  0
LINE
  5
112
100
AcDbEntity
  8
V1L2
100
AcDbLine
  6
CONTINUOUS
 62
1
 10
2.4239432E+001
 20
5.386663E+001
 11
2.4239432E+001
 21
5.347663E+001
  0
LINE
  5
113
100
AcDbEntity
  8
V1L2
100
AcDbLine
  6
CONTINUOUS
 62
1
 10
2.2739432E+001
 20
5.236663E+001
 11
2.3129432E+001
 21
5.236663E+001
  0
LINE
  5
114
100
AcDbEntity
  8
V1L2
100
AcDbLine
  6
CONTINUOUS
 62
1
 10
2.4239432E+001
 20
5.086663E+001
 11
2.4239432E+001
 21
5.1256631E+001
  0
LINE
  5
115
100
AcDbEntity
  8
V1L2
100
AcDbLine
  6
CONTINUOUS
 62
1
 10
2.5921432E+001
 20
4.7700631E+001
 11
2.3921432E+001
 21
4.7700631E+001
  0
LINE
  5
116
100
AcDbEntity
  8
V1L2
100
AcDbLine
  6
CONTINUOUS
 62
1
 10
2.4921432E+001
 20
4.8700631E+001
 11
2.4921432E+001
 21
4.6700631E+001
  0
LINE
  5
117
100
AcDbEntity
  8
V1L2
100
AcDbLine
  6
CONTINUOUS
 62
1
 10
2.6421432E+001
 20
4.7700631E+001
 11
2.6031432E+001
 21
4.7700631E+001
  0
LINE
  5
118
100
AcDbEntity
  8
V1L2
100
AcDbLine
  6
CONTINUOUS
 62
1
 10
2.4921432E+001
 20
4.9200631E+001
 11
2.4921432E+001
 21
4.8810631E+001
  0
LINE
  5
119
100
AcDbEntity
  8
V1L2
100
AcDbLine
  6
CONTINUOUS
 62
1
 10
2.3421432E+001
 20
4.7700631E+001
 11
2.3811432E+001
 21
4.7700631E+001
  0
LINE
  5
11a
100
AcDbEntity
  8
V1L2
100
AcDbLine
  6
CONTINUOUS
 62
1
 10
2.4921432E+001
 20
4.6200631E+001
 11
2.4921432E+001
 21
4.6590631E+001
  0
LINE
  5
11b
100
AcDbEntity
  8
V1L2
100
AcDbLine
  6
CONTINUOUS
 62
1
 10
2.5921432E+001
 20
4.1700631E+001
 11
2.3921432E+001
 21
4.1700631E+001
  0
LINE
  5
11c
100
AcDbEntity
  8
V1L2
100
AcDbLine
  6
CONTINUOUS
 62
1
 10
2.4921432E+001
 20
4.2700631E+001
 11
2.4921432E+001
 21
4.0700631E+001
  0
LINE
  5
11d
100
AcDbEntity
  8
V1L2
100
AcDbLine
  6
CONTINUOUS
 62
1
 10
2.6421432E+001
 20
4.1700631E+001
 11
2.6031432E+001
 21
4.1700631E+001
  0
LINE
  5
11e
100
AcDbEntity
  8
V1L2
100
AcDbLine
  6
CONTINUOUS
 62
1
 10
2.4921432E+001
 20
4.3200631E+001
 11
2.4921432E+001
 21
4.2810631E+001
  0
LINE
  5
11f
100
AcDbEntity
  8
V1L2
100
AcDbLine
  6
CONTINUOUS
 62
1
 10
2.3421432E+001
 20
4.1700631E+001
 11
2.3811432E+001
 21
4.1700631E+001
  0
LINE
  5
120
100
AcDbEntity
  8
V1L2
100
AcDbLine
  6
CONTINUOUS
 62
1
 10
2.4921432E+001
 20
4.0200631E+001
 11
2.4921432E+001
 21
4.0590631E+001
  0
LINE
  5
121
100
AcDbEntity
  8
V1L2
100
AcDbLine
  6
CONTINUOUS
 62
1
 10
2.5921432E+001
 20
3.5700631E+001
 11
2.3921432E+001
 21
3.5700631E+001
  0
LINE
  5
122
100
AcDbEntity
  8
V1L2
100
AcDbLine
  6
CONTINUOUS
 62
1
 10
2.4921432E+001
 20
3.6700631E+001
 11
2.4921432E+001
 21
3.4700631E+001
  0
LINE
  5
123
100
AcDbEntity
  8
V1L2
100
AcDbLine
  6
CONTINUOUS
 62
1
 10
2.6421432E+001
 20
3.5700631E+001
 11
2.6031432E+001
 21
3.5700631E+001
  0
LINE
  5
124
100
AcDbEntity
  8
V1L2
100
AcDbLine
  6
CONTINUOUS
 62
1
 10
2.4921432E+001
 20
3.7200631E+001
 11
2.4921432E+001
 21
3.6810631E+001
  0
LINE
  5
125
100
AcDbEntity
  8
V1L2
100
AcDbLine
  6
CONTINUOUS
 62
1
 10
2.3421432E+001
 20
3.5700631E+001
 11
2.3811432E+001
 21
3.5700631E+001
  0
LINE
  5
126
100
AcDbEntity
  8
V1L2
100
AcDbLine
  6
CONTINUOUS
 62
1
 10
2.4921432E+001
 20
3.4200631E+001
 11
2.4921432E+001
 21
3.4590631E+001
  0
LINE
  5
127
100
AcDbEntity
  8
V1L2
100
AcDbLine
  6
CONTINUOUS
 62
1
 10
2.5921432E+001
 20
2.970063E+001
 11
2.3921432E+001
 21
2.970063E+001
  0
LINE
  5
128
100
AcDbEntity
  8
V1L2
100
AcDbLine
  6
CONTINUOUS
 62
1
 10
2.4921432E+001
 20
3.070063E+001
 11
2.4921432E+001
 21
2.870063E+001
  0
LINE
  5
129
100
AcDbEntity
  8
V1L2
100
AcDbLine
  6
CONTINUOUS
 62
1
 10
2.6421432E+001
 20
2.970063E+001
 11
2.6031432E+001
 21
2.970063E+001
  0
LINE
  5
12a
100
AcDbEntity
  8
V1L2
100
AcDbLine
  6
CONTINUOUS
 62
1
 10
2.4921432E+001
 20
3.120063E+001
 11
2.4921432E+001
 21
3.081063E+001
  0
LINE
  5
12b
100
AcDbEntity
  8
V1L2
100
AcDbLine
  6
CONTINUOUS
 62
1
 10
2.3421432E+001
 20
2.970063E+001
 11
2.3811432E+001
 21
2.970063E+001
  0
LINE
  5
12c
100
AcDbEntity
  8
V1L2
100
AcDbLine
  6
CONTINUOUS
 62
1
 10
2.4921432E+001
 20
2.820063E+001
 11
2.4921432E+001
 21
2.8590631E+001
  0
LINE
  5
12d
100
AcDbEntity
  8
V1L2
100
AcDbLine
  6
CONTINUOUS
 62
1
 10
2.5921432E+001
 20
2.370063E+001
 11
2.3921432E+001
 21
2.370063E+001
  0
LINE
  5
12e
100
AcDbEntity
  8
V1L2
100
AcDbLine
  6
CONTINUOUS
 62
1
 10
2.4921432E+001
 20
2.470063E+001
 11
2.4921432E+001
 21
2.270063E+001
  0
LINE
  5
12f
100
AcDbEntity
  8
V1L2
100
AcDbLine
  6
CONTINUOUS
 62
1
 10
2.6421432E+001
 20
2.370063E+001
 11
2.6031432E+001
 21
2.370063E+001
  0
LINE
  5
130
100
AcDbEntity
  8
V1L2
100
AcDbLine
  6
CONTINUOUS
 62
1
 10
2.4921432E+001
 20
2.520063E+001
 11
2.4921432E+001
 21
2.481063E+001
  0
LINE
  5
131
100
AcDbEntity
  8
V1L2
100
AcDbLine
  6
CONTINUOUS
 62
1
 10
2.3421432E+001
 20
2.370063E+001
 11
2.3811432E+001
 21
2.370063E+001
  0
LINE
  5
132
100
AcDbEntity
  8
V1L2
100
AcDbLine
  6
CONTINUOUS
 62
1
 10
2.4921432E+001
 20
2.220063E+001
 11
2.4921432E+001
 21
2.2590631E+001
  0
LINE
  5
133
100
AcDbEntity
  8
V1L2
100
AcDbLine
  6
CONTINUOUS
 62
1
 10
2.5239432E+001
 20
1.3034631E+001
 11
2.3239432E+001
 21
1.3034631E+001
  0
LINE
  5
134
100
AcDbEntity
  8
V1L2
100
AcDbLine
  6
CONTINUOUS
 62
1
 10
2.4239432E+001
 20
1.4034631E+001
 11
2.4239432E+001
 21
1.2034631E+001
  0
LINE
  5
135
100
AcDbEntity
  8
V1L2
100
AcDbLine
  6
CONTINUOUS
 62
1
 10
2.5739432E+001
 20
1.3034631E+001
 11
2.5349432E+001
 21
1.3034631E+001
  0
LINE
  5
136
100
AcDbEntity
  8
V1L2
100
AcDbLine
  6
CONTINUOUS
 62
1
 10
2.4239432E+001
 20
1.4534631E+001
 11
2.4239432E+001
 21
1.4144631E+001
  0
LINE
  5
137
100
AcDbEntity
  8
V1L2
100
AcDbLine
  6
CONTINUOUS
 62
1
 10
2.2739432E+001
 20
1.3034631E+001
 11
2.3129432E+001
 21
1.3034631E+001
  0
LINE
  5
138
100
AcDbEntity
  8
V1L2
100
AcDbLine
  6
CONTINUOUS
 62
1
 10
2.4239432E+001
 20
1.1534631E+001
 11
2.4239432E+001
 21
1.1924631E+001
  0
LINE
  5
139
100
AcDbEntity
  8
V1L2
100
AcDbLine
  6
CONTINUOUS
 62
1
 10
2.0539432E+001
 20
1.3034631E+001
 11
1.8539432E+001
 21
1.3034631E+001
  0
LINE
  5
13a
100
AcDbEntity
  8
V1L2
100
AcDbLine
  6
CONTINUOUS
 62
1
 10
1.9539432E+001
 20
1.4034631E+001
 11
1.9539432E+001
 21
1.2034631E+001
  0
LINE
  5
13b
100
AcDbEntity
  8
V1L2
100
AcDbLine
  6
CONTINUOUS
 62
1
 10
2.1039432E+001
 20
1.3034631E+001
 11
2.0649432E+001
 21
1.3034631E+001
  0
LINE
  5
13c
100
AcDbEntity
  8
V1L2
100
AcDbLine
  6
CONTINUOUS
 62
1
 10
1.9539432E+001
 20
1.4534631E+001
 11
1.9539432E+001
 21
1.4144631E+001
  0
LINE
  5
13d
100
AcDbEntity
  8
V1L2
100
AcDbLine
  6
CONTINUOUS
 62
1
 10
1.8039432E+001
 20
1.3034631E+001
 11
1.8429432E+001
 21
1.3034631E+001
  0
LINE
  5
13e
100
AcDbEntity
  8
V1L2
100
AcDbLine
  6
CONTINUOUS
 62
1
 10
1.9539432E+001
 20
1.1534631E+001
 11
1.9539432E+001
 21
1.1924631E+001
  0
LINE
  5
13f
100
AcDbEntity
  8
V1L2
100
AcDbLine
  6
CONTINUOUS
 62
1
 10
1.5839432E+001
 20
1.3034631E+001
 11
1.3839432E+001
 21
1.3034631E+001
  0
LINE
  5
140
100
AcDbEntity
  8
V1L2
100
AcDbLine
  6
CONTINUOUS
 62
1
 10
1.4839432E+001
 20
1.4034631E+001
 11
1.4839432E+001
 21
1.2034631E+001
  0
LINE
  5
141
100
AcDbEntity
  8
V1L2
100
AcDbLine
  6
CONTINUOUS
 62
1
 10
1.6339432E+001
 20
1.3034631E+001
 11
1.5949432E+001
 21
1.3034631E+001
  0
LINE
  5
142
100
AcDbEntity
  8
V1L2
100
AcDbLine
  6
CONTINUOUS
 62
1
 10
1.4839432E+001
 20
1.4534631E+001
 11
1.4839432E+001
 21
1.4144631E+001
  0
LINE
  5
143
100
AcDbEntity
  8
V1L2
100
AcDbLine
  6
CONTINUOUS
 62
1
 10
1.3339432E+001
 20
1.3034631E+001
 11
1.3729432E+001
 21
1.3034631E+001
  0
LINE
  5
144
100
AcDbEntity
  8
V1L2
100
AcDbLine
  6
CONTINUOUS
 62
1
 10
1.4839432E+001
 20
1.1534631E+001
 11
1.4839432E+001
 21
1.1924631E+001
  0
LINE
  5
145
100
AcDbEntity
  8
V1L2
100
AcDbLine
  6
CONTINUOUS
 62
1
 10
1.5157432E+001
 20
1.7700631E+001
 11
1.3157432E+001
 21
1.7700631E+001
  0
LINE
  5
146
100
AcDbEntity
  8
V1L2
100
AcDbLine
  6
CONTINUOUS
 62
1
 10
1.4157432E+001
 20
1.8700631E+001
 11
1.4157432E+001
 21
1.6700631E+001
  0
LINE
  5
147
100
AcDbEntity
  8
V1L2
100
AcDbLine
  6
CONTINUOUS
 62
1
 10
1.5657432E+001
 20
1.7700631E+001
 11
1.5267432E+001
 21
1.7700631E+001
  0
LINE
  5
148
100
AcDbEntity
  8
V1L2
100
AcDbLine
  6
CONTINUOUS
 62
1
 10
1.4157432E+001
 20
1.920063E+001
 11
1.4157432E+001
 21
1.8810631E+001
  0
LINE
  5
149
100
AcDbEntity
  8
V1L2
100
AcDbLine
  6
CONTINUOUS
 62
1
 10
1.2657432E+001
 20
1.7700631E+001
 11
1.3047432E+001
 21
1.7700631E+001
  0
LINE
  5
14a
100
AcDbEntity
  8
V1L2
100
AcDbLine
  6
CONTINUOUS
 62
1
 10
1.4157432E+001
 20
1.6200631E+001
 11
1.4157432E+001
 21
1.6590631E+001
  0
LINE
  5
14b
100
AcDbEntity
  8
V1L2
100
AcDbLine
  6
CONTINUOUS
 62
1
 10
1.5157432E+001
 20
2.370063E+001
 11
1.3157432E+001
 21
2.370063E+001
  0
LINE
  5
14c
100
AcDbEntity
  8
V1L2
100
AcDbLine
  6
CONTINUOUS
 62
1
 10
1.4157432E+001
 20
2.470063E+001
 11
1.4157432E+001
 21
2.270063E+001
  0
LINE
  5
14d
100
AcDbEntity
  8
V1L2
100
AcDbLine
  6
CONTINUOUS
 62
1
 10
1.5657432E+001
 20
2.370063E+001
 11
1.5267432E+001
 21
2.370063E+001
  0
LINE
  5
14e
100
AcDbEntity
  8
V1L2
100
AcDbLine
  6
CONTINUOUS
 62
1
 10
1.4157432E+001
 20
2.520063E+001
 11
1.4157432E+001
 21
2.481063E+001
  0
LINE
  5
14f
100
AcDbEntity
  8
V1L2
100
AcDbLine
  6
CONTINUOUS
 62
1
 10
1.2657432E+001
 20
2.370063E+001
 11
1.3047432E+001
 21
2.370063E+001
  0
LINE
  5
150
100
AcDbEntity
  8
V1L2
100
AcDbLine
  6
CONTINUOUS
 62
1
 10
1.4157432E+001
 20
2.220063E+001
 11
1.4157432E+001
 21
2.2590631E+001
  0
LINE
  5
151
100
AcDbEntity
  8
V1L2
100
AcDbLine
  6
CONTINUOUS
 62
1
 10
1.5157432E+001
 20
2.970063E+001
 11
1.3157432E+001
 21
2.970063E+001
  0
LINE
  5
152
100
AcDbEntity
  8
V1L2
100
AcDbLine
  6
CONTINUOUS
 62
1
 10
1.4157432E+001
 20
3.070063E+001
 11
1.4157432E+001
 21
2.870063E+001
  0
LINE
  5
153
100
AcDbEntity
  8
V1L2
100
AcDbLine
  6
CONTINUOUS
 62
1
 10
1.5657432E+001
 20
2.970063E+001
 11
1.5267432E+001
 21
2.970063E+001
  0
LINE
  5
154
100
AcDbEntity
  8
V1L2
100
AcDbLine
  6
CONTINUOUS
 62
1
 10
1.4157432E+001
 20
3.120063E+001
 11
1.4157432E+001
 21
3.081063E+001
  0
LINE
  5
155
100
AcDbEntity
  8
V1L2
100
AcDbLine
  6
CONTINUOUS
 62
1
 10
1.2657432E+001
 20
2.970063E+001
 11
1.3047432E+001
 21
2.970063E+001
  0
LINE
  5
156
100
AcDbEntity
  8
V1L2
100
AcDbLine
  6
CONTINUOUS
 62
1
 10
1.4157432E+001
 20
2.820063E+001
 11
1.4157432E+001
 21
2.8590631E+001
  0
LINE
  5
157
100
AcDbEntity
  8
V1L2
100
AcDbLine
  6
CONTINUOUS
 62
1
 10
1.5157432E+001
 20
3.5700631E+001
 11
1.3157432E+001
 21
3.5700631E+001
  0
LINE
  5
158
100
AcDbEntity
  8
V1L2
100
AcDbLine
  6
CONTINUOUS
 62
1
 10
1.4157432E+001
 20
3.6700631E+001
 11
1.4157432E+001
 21
3.4700631E+001
  0
LINE
  5
159
100
AcDbEntity
  8
V1L2
100
AcDbLine
  6
CONTINUOUS
 62
1
 10
1.5657432E+001
 20
3.5700631E+001
 11
1.5267432E+001
 21
3.5700631E+001
  0
LINE
  5
15a
100
AcDbEntity
  8
V1L2
100
AcDbLine
  6
CONTINUOUS
 62
1
 10
1.4157432E+001
 20
3.7200631E+001
 11
1.4157432E+001
 21
3.6810631E+001
  0
LINE
  5
15b
100
AcDbEntity
  8
V1L2
100
AcDbLine
  6
CONTINUOUS
 62
1
 10
1.2657432E+001
 20
3.5700631E+001
 11
1.3047432E+001
 21
3.5700631E+001
  0
LINE
  5
15c
100
AcDbEntity
  8
V1L2
100
AcDbLine
  6
CONTINUOUS
 62
1
 10
1.4157432E+001
 20
3.4200631E+001
 11
1.4157432E+001
 21
3.4590631E+001
  0
LINE
  5
15d
100
AcDbEntity
  8
V1L2
100
AcDbLine
  6
CONTINUOUS
 62
1
 10
1.5157432E+001
 20
4.1700631E+001
 11
1.3157432E+001
 21
4.1700631E+001
  0
LINE
  5
15e
100
AcDbEntity
  8
V1L2
100
AcDbLine
  6
CONTINUOUS
 62
1
 10
1.4157432E+001
 20
4.2700631E+001
 11
1.4157432E+001
 21
4.0700631E+001
  0
LINE
  5
15f
100
AcDbEntity
  8
V1L2
100
AcDbLine
  6
CONTINUOUS
 62
1
 10
1.5657432E+001
 20
4.1700631E+001
 11
1.5267432E+001
 21
4.1700631E+001
  0
LINE
  5
160
100
AcDbEntity
  8
V1L2
100
AcDbLine
  6
CONTINUOUS
 62
1
 10
1.4157432E+001
 20
4.3200631E+001
 11
1.4157432E+001
 21
4.2810631E+001
  0
LINE
  5
161
100
AcDbEntity
  8
V1L2
100
AcDbLine
  6
CONTINUOUS
 62
1
 10
1.2657432E+001
 20
4.1700631E+001
 11
1.3047432E+001
 21
4.1700631E+001
  0
LINE
  5
162
100
AcDbEntity
  8
V1L2
100
AcDbLine
  6
CONTINUOUS
 62
1
 10
1.4157432E+001
 20
4.0200631E+001
 11
1.4157432E+001
 21
4.0590631E+001
  0
LINE
  5
163
100
AcDbEntity
  8
V1L2
100
AcDbLine
  6
CONTINUOUS
 62
1
 10
1.5157432E+001
 20
4.7700631E+001
 11
1.3157432E+001
 21
4.7700631E+001
  0
LINE
  5
164
100
AcDbEntity
  8
V1L2
100
AcDbLine
  6
CONTINUOUS
 62
1
 10
1.4157432E+001
 20
4.8700631E+001
 11
1.4157432E+001
 21
4.6700631E+001
  0
LINE
  5
165
100
AcDbEntity
  8
V1L2
100
AcDbLine
  6
CONTINUOUS
 62
1
 10
1.5657432E+001
 20
4.7700631E+001
 11
1.5267432E+001
 21
4.7700631E+001
  0
LINE
  5
166
100
AcDbEntity
  8
V1L2
100
AcDbLine
  6
CONTINUOUS
 62
1
 10
1.4157432E+001
 20
4.9200631E+001
 11
1.4157432E+001
 21
4.8810631E+001
  0
LINE
  5
167
100
AcDbEntity
  8
V1L2
100
AcDbLine
  6
CONTINUOUS
 62
1
 10
1.2657432E+001
 20
4.7700631E+001
 11
1.3047432E+001
 21
4.7700631E+001
  0
LINE
  5
168
100
AcDbEntity
  8
V1L2
100
AcDbLine
  6
CONTINUOUS
 62
1
 10
1.4157432E+001
 20
4.6200631E+001
 11
1.4157432E+001
 21
4.6590631E+001
  0
LINE
  5
169
100
AcDbEntity
  8
V1L2
100
AcDbLine
  6
HIDDEN
 62
1
 10
1.4387432E+001
 20
1.4834631E+001
 11
2.4687432E+001
 21
1.4834631E+001
  0
LINE
  5
16a
100
AcDbEntity
  8
V1L2
100
AcDbLine
  6
HIDDEN
 62
1
 10
2.4687432E+001
 20
2.5644631E+001
 11
1.4387432E+001
 21
2.5644631E+001
  0
TEXT
  5
16b
100
AcDbEntity
  8
V1L1
100
AcDbText
  6
CONTINUOUS
 62
1
 10
1.6499965E+001
 20
4.4397932E+001
 40
1.0
  1
CUTOUT
100
AcDbText
  0
TEXT
  5
16c
100
AcDbEntity
  8
V1L1
100
AcDbText
  6
CONTINUOUS
 62
1
 10
1.6499965E+001
 20
1.9973642E+001
 40
1.0
  1
CUTOUT
100
AcDbText
  0
TEXT
  5
16d
100
AcDbEntity
  8
V1L1
100
AcDbText
  6
CONTINUOUS
 62
1
 10
9.1184016
 20
5.7532772
 40
1.0
  1
EXTERNAL MOUNTING PLAN
100
AcDbText
  0
INSERT
  5
16e
100
AcDbEntity
100
AcDbBlockReference
  2
*TX26
  8
V1L1
 10
7.3815632
 20
6.285184E+001
  0
ENDSEC
  0
SECTION
  2
OBJECTS
  0
DICTIONARY
  5
16f
100
AcDbDictionary
  3
ACAD_GROUP
350
170
  3
ACAD_MLINESTYLE
350
171
  0
DICTIONARY
  5
170
102
{ACAD_REACTORS
330
16f
102
}
100
AcDbDictionary
  0
DICTIONARY
  5
171
102
{ACAD_REACTORS
330
16f
102
}
100
AcDbDictionary
  3
STANDARD
350
172
  0
MLINESTYLE
  5
172
102
{ACAD_REACTORS
330
171
102
}
100
AcDbMlineStyle
  2
STANDARD
 70
0
  3

 62
256
 51
9.0E+001
 52
9.0E+001
 71
2
 49
5.0E-001
 62
256
  6
BYLAYER
 49
-5.0E-001
 62
256
  6
BYLAYER
  0
ENDSEC
  0
EOF
