  0
SECTION
  2
HEADER
  9
$ACADVER
  1
AC1014
999
I-DEAS 13 NX
  9
$EXTMIN
 10
0.0
 20
0.0
  9
$EXTMAX
 10
4.8E+001
 20
4.8E+001
  9
$TEXTSIZE
 40
1.25E-001
  9
$LTSCALE
 40
1.0
  9
$CLAYER
  8
V1L1
  9
$CECOLOR
 62
1
  9
$DIMASZ
 40
1.25E-001
  9
$DIMEXO
 40
6.25E-002
  9
$DIMDLI
 40
2.5E-001
  9
$DIMEXE
 40
1.25E-001
  9
$DIMTP
 40
5.0E-003
  9
$DIMTM
 40
-5.0E-003
  9
$DIMTXT
 40
1.25E-001
  9
$DIMLIM
 70
0
  9
$DIMTIH
 70
1
  9
$DIMTOH
 70
1
  9
$DIMSE1
 70
0
  9
$DIMSE2
 70
0
  9
$DIMTAD
 70
0
  9
$DIMASO
 70
1
  9
$DIMALT
 70
0
  9
$DIMALTD
 70
0
  9
$DIMTOFL
 70
1
  9
$DIMTIX
 70
0
  9
$DIMSAH
 70
0
  9
$DIMSTYLE
  2
DSTYLE1
  9
$DIMTFAC
 40
1.0
  9
$DIMGAP
 40
6.25E-002
  9
$LUNITS
 70
2
  9
$LUPREC
 70
3
  9
$FILLETRAD
 40
2.5E-001
  9
$AUNITS
 70
0
  9
$AUPREC
 70
1
  9
$CHAMFERA
 40
2.5E-001
  9
$CHAMFERB
 40
2.5E-001
  9
$ANGBASE
 50
0.0
  9
$ANGDIR
 70
0
  9
$PEXTMIN
 10
0.0
 20
0.0
 30
0.0
  9
$PEXTMAX
 10
4.8E+001
 20
4.8E+001
 30
0.0
  9
$PLIMMIN
 10
0.0
 20
0.0
  9
$PLIMMAX
 10
4.8E+001
 20
4.8E+001
  9
$PDMODE
 70
2
  9
$PDSIZE
 40
-1.0E-002
  9
$SPLINETYPE
 70
6
  9
$TILEMODE
 70
1
  9
$HANDLING
 70
1
  9
$HANDSEED
  5
f4240
  0
ENDSEC
  0
SECTION
  2
TABLES
  0
TABLE
  2
VPORT
  5
64
100
AcDbSymbolTable
 70
2
  0
VPORT
  5
65
100
AcDbSymbolTableRecord
100
AcDbViewportTableRecord
  2
*Active
 70
0
 10
0.0
 20
0.0
 11
4.8E+001
 21
4.8E+001
 12
2.4E+001
 22
2.4E+001
 13
0.0
 23
0.0
 14
1.0
 24
1.0
 15
0.0
 25
0.0
 16
0.0
 26
0.0
 36
1.0
 17
0.0
 27
0.0
 37
0.0
 40
4.8E+001
 41
1.0
 42
5.0E+001
 43
0.0
 44
0.0
 50
0.0
 51
0.0
 71
0
 72
1000
 73
1
 74
3
 75
0
 76
0
 77
0
 78
0
  0
ENDTAB
  0
TABLE
  2
LTYPE
  5
66
100
AcDbSymbolTable
 70
7
  0
LTYPE
  5
67
100
AcDbSymbolTableRecord
100
AcDbLinetypeTableRecord
  2
BYBLOCK
 70
0
  3

 72
65
 73
0
 40
0.0
  0
LTYPE
  5
68
100
AcDbSymbolTableRecord
100
AcDbLinetypeTableRecord
  2
BYLAYER
 70
0
  3

 72
65
 73
0
 40
0.0
  0
LTYPE
  5
69
100
AcDbSymbolTableRecord
100
AcDbLinetypeTableRecord
  2
CONTINUOUS
 70
0
  3

 72
65
 73
0
 40
0.0
  0
LTYPE
  5
6a
100
AcDbSymbolTableRecord
100
AcDbLinetypeTableRecord
  2
HIDDENNEW0
  3
_ 
 70
64
 72
65
 73
3
 40
1.875E-001
 49
6.25E-002
 74
0
 49
-6.25E-002
 74
0
 49
6.25E-002
 74
0
  0
LTYPE
  5
6b
100
AcDbSymbolTableRecord
100
AcDbLinetypeTableRecord
  2
HIDDENNEW1
  3
_ 
 70
64
 72
65
 73
3
 40
1.875E-001
 49
6.25E-002
 74
0
 49
-6.25E-002
 74
0
 49
6.25E-002
 74
0
  0
LTYPE
  5
6c
100
AcDbSymbolTableRecord
100
AcDbLinetypeTableRecord
  2
HIDDEN
  3
_ 
 70
64
 72
65
 73
3
 40
1.875E-001
 49
6.25E-002
 74
0
 49
-6.25E-002
 74
0
 49
6.25E-002
 74
0
  0
LTYPE
  5
6d
100
AcDbSymbolTableRecord
100
AcDbLinetypeTableRecord
  2
CENTERLINE
  3
_ 
 70
64
 72
65
 73
5
 40
1.25
 49
5.0E-001
 74
0
 49
-6.25E-002
 74
0
 49
1.25E-001
 74
0
 49
-6.25E-002
 74
0
 49
5.0E-001
 74
0
  0
LTYPE
  5
6e
100
AcDbSymbolTableRecord
100
AcDbLinetypeTableRecord
  2
PHANTOM
  3
_ 
 70
64
 72
65
 73
7
 40
1.1875
 49
3.75E-001
 74
0
 49
-6.25E-002
 74
0
 49
1.25E-001
 74
0
 49
-6.25E-002
 74
0
 49
1.25E-001
 74
0
 49
-6.25E-002
 74
0
 49
3.75E-001
 74
0
  0
LTYPE
  5
6f
100
AcDbSymbolTableRecord
100
AcDbLinetypeTableRecord
  2
SHORT_DASH
  3
_ 
 70
64
 72
65
 73
3
 40
1.25E-001
 49
3.125E-002
 74
0
 49
-6.25E-002
 74
0
 49
3.125E-002
 74
0
  0
LTYPE
  5
70
100
AcDbSymbolTableRecord
100
AcDbLinetypeTableRecord
  2
LONG_DASH
  3
_ 
 70
64
 72
65
 73
3
 40
3.75E-001
 49
9.375E-002
 74
0
 49
-1.875E-001
 74
0
 49
9.375E-002
 74
0
  0
ENDTAB
  0
TABLE
  2
LAYER
  5
71
100
AcDbSymbolTable
 70
258
  0
LAYER
  5
72
100
AcDbSymbolTableRecord
100
AcDbLayerTableRecord
  2
0
 70
0
 62
7
  6
CONTINUOUS
  0
LAYER
  5
73
100
AcDbSymbolTableRecord
100
AcDbLayerTableRecord
  2
V1L0
 70
0
 62
7
  6
CONTINUOUS
  0
LAYER
  5
74
100
AcDbSymbolTableRecord
100
AcDbLayerTableRecord
  2
Drafting_Hidden_Entities
 70
1
 62
7
  6
CONTINUOUS
  0
ENDTAB
  0
TABLE
  2
STYLE
  5
75
100
AcDbSymbolTable
 70
1
  0
STYLE
  5
76
100
AcDbSymbolTableRecord
100
AcDbTextStyleTableRecord
  2
STANDARD
 70
64
 40
0.0
 41
1.0
 50
0.0
 71
0
 42
1.0
  3
monotxt.shx
  4

  0
ENDTAB
  0
TABLE
  2
VIEW
  5
77
100
AcDbSymbolTable
 70
0
  0
ENDTAB
  0
TABLE
  2
UCS
  5
78
100
AcDbSymbolTable
 70
0
  0
ENDTAB
  0
TABLE
  2
APPID
  5
79
100
AcDbSymbolTable
 70
1
  0
APPID
  5
7a
100
AcDbSymbolTableRecord
100
AcDbRegAppTableRecord
  2
ACAD
 70
1
  0
ENDTAB
  0
TABLE
  2
DIMSTYLE
  5
7b
100
AcDbSymbolTable
 70
0
  0
ENDTAB
  0
TABLE
  2
BLOCK_RECORD
  5
7c
100
AcDbSymbolTable
 70
0
  0
BLOCK_RECORD
  5
7d
100
AcDbSymbolTableRecord
100
AcDbBlockTableRecord
  2
*MODEL_SPACE
  0
BLOCK_RECORD
  5
7e
100
AcDbSymbolTableRecord
100
AcDbBlockTableRecord
  2
*PAPER_SPACE
  0
BLOCK_RECORD
  5
7f
100
AcDbSymbolTableRecord
100
AcDbBlockTableRecord
  2
_AH1
  0
BLOCK_RECORD
  5
80
100
AcDbSymbolTableRecord
100
AcDbBlockTableRecord
  2
_AH2
  0
BLOCK_RECORD
  5
81
100
AcDbSymbolTableRecord
100
AcDbBlockTableRecord
  2
_AH12
  3
_AH
  0
BLOCK_RECORD
  5
82
100
AcDbSymbolTableRecord
100
AcDbBlockTableRecord
  2
_AH13
  3
_AH
  0
BLOCK_RECORD
  5
83
100
AcDbSymbolTableRecord
100
AcDbBlockTableRecord
  2
_AH14
  3
_AH
  0
BLOCK_RECORD
  5
84
100
AcDbSymbolTableRecord
100
AcDbBlockTableRecord
  2
_AH15
  3
_AH
  0
BLOCK_RECORD
  5
85
100
AcDbSymbolTableRecord
100
AcDbBlockTableRecord
  2
_AH16
  3
_AH
  0
BLOCK_RECORD
  5
86
100
AcDbSymbolTableRecord
100
AcDbBlockTableRecord
  2
_AH17
  3
_AH
  0
BLOCK_RECORD
  5
87
100
AcDbSymbolTableRecord
100
AcDbBlockTableRecord
  2
_AH18
  3
_AH
  0
BLOCK_RECORD
  5
88
100
AcDbSymbolTableRecord
100
AcDbBlockTableRecord
  2
_AH19
  3
_AH
  0
BLOCK_RECORD
  5
89
100
AcDbSymbolTableRecord
100
AcDbBlockTableRecord
  2
_AH20
  3
_AH
  0
BLOCK_RECORD
  5
8a
100
AcDbSymbolTableRecord
100
AcDbBlockTableRecord
  2
_AH21
  3
_AH
  0
BLOCK_RECORD
  5
8b
100
AcDbSymbolTableRecord
100
AcDbBlockTableRecord
  2
*TX128
  3
*TX
  0
BLOCK_RECORD
  5
8c
100
AcDbSymbolTableRecord
100
AcDbBlockTableRecord
  2
*VIEW1
  0
BLOCK_RECORD
  5
8d
100
AcDbSymbolTableRecord
100
AcDbBlockTableRecord
  2
*VIEW9
  0
BLOCK_RECORD
  5
8e
100
AcDbSymbolTableRecord
100
AcDbBlockTableRecord
  2
*VIEW10
  0
ENDTAB
  0
ENDSEC
  0
SECTION
  2
BLOCKS
  0
BLOCK
  5
8f
100
AcDbEntity
100
AcDbBlockBegin
  2
*MODEL_SPACE
 70
0
 10
0.0
 20
0.0
 30
0.0
  3
*MODEL_SPACE
  1

  0
ENDBLK
  5
90
100
AcDbEntity
100
AcDbBlockEnd
  0
BLOCK
  5
91
100
AcDbEntity
100
AcDbBlockBegin
  2
*PAPER_SPACE
 70
0
 10
0.0
 20
0.0
 30
0.0
  3
*PAPER_SPACE
  1

  0
ENDBLK
  5
92
100
AcDbEntity
100
AcDbBlockEnd
  0
BLOCK
  5
93
100
AcDbEntity
100
AcDbBlockBegin
  2
*VIEW1
  3
*VIEW
 10
0.0
 20
0.0
 70
65
  0
TEXT
  5
94
100
AcDbEntity
  8
V0L1
100
AcDbText
  6
CONTINUOUS
 62
211
 10
0.0
 20
0.0
 40
1.0
  1
BV1XL0.0YL0.0XH4.8E+001YH4.8E+001
 41
1.25E-001
 50
1.0
 51
1.0
100
AcDbText
  0
TEXT
  5
95
100
AcDbEntity
  8
V0L1
100
AcDbText
  6
CONTINUOUS
 62
211
 10
0.0
 20
0.0
 40
1.0
  1
DV1X0.0Y0.0S1.0N1-MAIN
 41
1.25E-001
 50
1.0
 51
1.0
100
AcDbText
  0
ENDBLK
  5
96
100
AcDbEntity
100
AcDbBlockEnd
  0
BLOCK
  5
97
100
AcDbEntity
100
AcDbBlockBegin
  2
*VIEW9
  3
*VIEW
 10
0.0
 20
0.0
 70
65
  0
TEXT
  5
98
100
AcDbEntity
  8
V0L1
100
AcDbText
  6
CONTINUOUS
 62
211
 10
0.0
 20
0.0
 40
1.0
  1
BV9XL2.4901565E+001YL6.869397E-001XH4.7312974E+001YH4.7570577E+001
 41
1.25E-001
 50
1.0
 51
1.0
100
AcDbText
  0
TEXT
  5
99
100
AcDbEntity
  8
V0L1
100
AcDbText
  6
CONTINUOUS
 62
211
 10
0.0
 20
0.0
 40
1.0
  1
DV9X4.2374072E+001Y3.8337836E+001S1.0N9-EXPLICIT
 41
1.25E-001
 50
1.0
 51
1.0
100
AcDbText
  0
ENDBLK
  5
9a
100
AcDbEntity
100
AcDbBlockEnd
  0
BLOCK
  5
9b
100
AcDbEntity
100
AcDbBlockBegin
  2
*VIEW10
  3
*VIEW
 10
0.0
 20
0.0
 70
65
  0
TEXT
  5
9c
100
AcDbEntity
  8
V0L1
100
AcDbText
  6
CONTINUOUS
 62
211
 10
0.0
 20
0.0
 40
1.0
  1
BV10XL2.576024E-001YL6.869397E-001XH2.4901565E+001YH4.7570577E+001
 41
1.25E-001
 50
1.0
 51
1.0
100
AcDbText
  0
TEXT
  5
9d
100
AcDbEntity
  8
V0L1
100
AcDbText
  6
CONTINUOUS
 62
211
 10
0.0
 20
0.0
 40
1.0
  1
DV10X4.1699184Y3.7442179E+001S1.0N10-EXPLICIT
 41
1.25E-001
 50
1.0
 51
1.0
100
AcDbText
  0
ENDBLK
  5
9e
100
AcDbEntity
100
AcDbBlockEnd
  0
BLOCK
  5
9f
100
AcDbEntity
100
AcDbBlockBegin
  2
_AH12
  3
_AH
 10
0.0
 20
0.0
 70
64
  0
LINE
  5
a0
100
AcDbEntity
  8
V0L1
100
AcDbLine
  6
CONTINUOUS
 62
0
 10
0.0
 20
0.0
 11
1.0
 21
0.0
  0
LINE
  5
a1
100
AcDbEntity
  8
V0L1
100
AcDbLine
  6
CONTINUOUS
 62
0
 10
0.0
 20
0.0
 11
-1.0
 21
0.0
  0
ENDBLK
  5
a2
100
AcDbEntity
100
AcDbBlockEnd
  0
BLOCK
  5
a3
100
AcDbEntity
100
AcDbBlockBegin
  2
_AH13
  3
_AH
 10
0.0
 20
0.0
 70
64
  0
SOLID
  5
a4
100
AcDbEntity
  8
V0L1
100
AcDbTrace
  6
CONTINUOUS
 62
0
 10
0.0
 20
0.0
 11
1.0
 21
-1.66667E-001
 12
1.0
 22
1.66667E-001
 13
0.0
 23
0.0
  0
ENDBLK
  5
a5
100
AcDbEntity
100
AcDbBlockEnd
  0
BLOCK
  5
a6
100
AcDbEntity
100
AcDbBlockBegin
  2
_AH14
  3
_AH
 10
0.0
 20
0.0
 70
64
  0
ENDBLK
  5
a7
100
AcDbEntity
100
AcDbBlockEnd
  0
BLOCK
  5
a8
100
AcDbEntity
100
AcDbBlockBegin
  2
_AH15
  3
_AH
 10
0.0
 20
0.0
 70
64
  0
CIRCLE
  5
a9
100
AcDbEntity
  8
V0L1
100
AcDbCircle
  6
CONTINUOUS
 62
0
 10
0.0
 20
0.0
 40
1.66667E-001
  0
LINE
  5
aa
100
AcDbEntity
  8
V0L1
100
AcDbLine
  6
CONTINUOUS
 62
0
 10
0.0
 20
0.0
 11
-1.0
 21
0.0
  0
ENDBLK
  5
ab
100
AcDbEntity
100
AcDbBlockEnd
  0
BLOCK
  5
ac
100
AcDbEntity
100
AcDbBlockBegin
  2
_AH16
  3
_AH
 10
0.0
 20
0.0
 70
64
  0
POLYLINE
  5
ad
100
AcDbEntity
  8
V0L1
100
AcDb2dPolyline
  6
CONTINUOUS
 62
0
 66
1
 40
1.66667E-001
 41
1.66667E-001
 70
0
  0
VERTEX
  5
ae
100
AcDbEntity
  8
V0L1
100
AcDbVertex
100
AcDb2dVertex
 42
1.0
 10
8.3335E-002
 20
0.0
 70
0
  0
VERTEX
  5
af
100
AcDbEntity
  8
V0L1
100
AcDbVertex
100
AcDb2dVertex
 42
1.0
 10
-8.3335E-002
 20
0.0
 70
0
  0
VERTEX
  5
b0
100
AcDbEntity
  8
V0L1
100
AcDbVertex
100
AcDb2dVertex
 42
0.0
 10
8.3335E-002
 20
0.0
 70
0
  0
SEQEND
  5
b1
100
AcDbEntity
  0
LINE
  5
b2
100
AcDbEntity
  8
V0L1
100
AcDbLine
  6
CONTINUOUS
 62
0
 10
0.0
 20
0.0
 11
-1.0
 21
0.0
  0
ENDBLK
  5
b3
100
AcDbEntity
100
AcDbBlockEnd
  0
BLOCK
  5
b4
100
AcDbEntity
100
AcDbBlockBegin
  2
_AH17
  3
_AH
 10
0.0
 20
0.0
 70
64
  0
LINE
  5
b5
100
AcDbEntity
  8
V0L1
100
AcDbLine
  6
CONTINUOUS
 62
0
 10
-1.66667E-001
 20
-1.66667E-001
 11
1.66667E-001
 21
-1.66667E-001
  0
LINE
  5
b6
100
AcDbEntity
  8
V0L1
100
AcDbLine
  6
CONTINUOUS
 62
0
 10
1.66667E-001
 20
-1.66667E-001
 11
1.66667E-001
 21
1.66667E-001
  0
LINE
  5
b7
100
AcDbEntity
  8
V0L1
100
AcDbLine
  6
CONTINUOUS
 62
0
 10
1.66667E-001
 20
1.66667E-001
 11
-1.66667E-001
 21
1.66667E-001
  0
LINE
  5
b8
100
AcDbEntity
  8
V0L1
100
AcDbLine
  6
CONTINUOUS
 62
0
 10
-1.66667E-001
 20
1.66667E-001
 11
-1.66667E-001
 21
-1.66667E-001
  0
LINE
  5
b9
100
AcDbEntity
  8
V0L1
100
AcDbLine
  6
CONTINUOUS
 62
0
 10
0.0
 20
0.0
 11
-1.0
 21
0.0
  0
ENDBLK
  5
ba
100
AcDbEntity
100
AcDbBlockEnd
  0
BLOCK
  5
bb
100
AcDbEntity
100
AcDbBlockBegin
  2
_AH18
  3
_AH
 10
0.0
 20
0.0
 70
64
  0
SOLID
  5
bc
100
AcDbEntity
  8
V0L1
100
AcDbTrace
  6
CONTINUOUS
 62
0
 10
-1.66667E-001
 20
-1.66667E-001
 11
1.66667E-001
 21
-1.66667E-001
 12
-1.66667E-001
 22
1.66667E-001
 13
1.66667E-001
 23
1.66667E-001
  0
LINE
  5
bd
100
AcDbEntity
  8
V0L1
100
AcDbLine
  6
CONTINUOUS
 62
0
 10
0.0
 20
0.0
 11
-1.0
 21
0.0
  0
ENDBLK
  5
be
100
AcDbEntity
100
AcDbBlockEnd
  0
BLOCK
  5
bf
100
AcDbEntity
100
AcDbBlockBegin
  2
_AH19
  3
_AH
 10
0.0
 20
0.0
 70
64
  0
LINE
  5
c0
100
AcDbEntity
  8
V0L1
100
AcDbLine
  6
CONTINUOUS
 62
0
 10
-5.0E-001
 20
-5.0E-001
 11
5.0E-001
 21
5.0E-001
  0
LINE
  5
c1
100
AcDbEntity
  8
V0L1
100
AcDbLine
  6
CONTINUOUS
 62
0
 10
0.0
 20
0.0
 11
-1.0
 21
0.0
  0
ENDBLK
  5
c2
100
AcDbEntity
100
AcDbBlockEnd
  0
BLOCK
  5
c3
100
AcDbEntity
100
AcDbBlockBegin
  2
_AH20
  3
_AH
 10
0.0
 20
0.0
 70
64
  0
POLYLINE
  5
c4
100
AcDbEntity
  8
V0L1
100
AcDb2dPolyline
  6
CONTINUOUS
 62
0
 66
1
 40
2.0E-002
 41
2.0E-002
 70
0
  0
VERTEX
  5
c5
100
AcDbEntity
  8
V0L1
100
AcDbVertex
100
AcDb2dVertex
 42
4.1421356E-001
 10
-1.66667E-001
 20
-1.66667E-001
 70
0
  0
VERTEX
  5
c6
100
AcDbEntity
  8
V0L1
100
AcDbVertex
100
AcDb2dVertex
 42
0.0
 10
0.0
 20
0.0
 70
0
  0
SEQEND
  5
c7
100
AcDbEntity
  0
POLYLINE
  5
c8
100
AcDbEntity
  8
V0L1
100
AcDb2dPolyline
  6
CONTINUOUS
 62
0
 66
1
 40
2.0E-002
 41
2.0E-002
 70
0
  0
VERTEX
  5
c9
100
AcDbEntity
  8
V0L1
100
AcDbVertex
100
AcDb2dVertex
 42
4.1421356E-001
 10
1.66667E-001
 20
1.66667E-001
 70
0
  0
VERTEX
  5
ca
100
AcDbEntity
  8
V0L1
100
AcDbVertex
100
AcDb2dVertex
 42
0.0
 10
0.0
 20
0.0
 70
0
  0
SEQEND
  5
cb
100
AcDbEntity
  0
LINE
  5
cc
100
AcDbEntity
  8
V0L1
100
AcDbLine
  6
CONTINUOUS
 62
0
 10
0.0
 20
0.0
 11
-1.0
 21
0.0
  0
ENDBLK
  5
cd
100
AcDbEntity
100
AcDbBlockEnd
  0
BLOCK
  5
ce
100
AcDbEntity
100
AcDbBlockBegin
  2
_AH21
  3
_AH
 10
0.0
 20
0.0
 70
64
  0
LINE
  5
cf
100
AcDbEntity
  8
V0L1
100
AcDbLine
  6
CONTINUOUS
 62
0
 10
0.0
 20
0.0
 11
-1.0
 21
-1.66667E-001
  0
LINE
  5
d0
100
AcDbEntity
  8
V0L1
100
AcDbLine
  6
CONTINUOUS
 62
0
 10
-1.0
 20
-1.66667E-001
 11
-1.0
 21
1.66667E-001
  0
LINE
  5
d1
100
AcDbEntity
  8
V0L1
100
AcDbLine
  6
CONTINUOUS
 62
0
 10
-1.0
 20
1.66667E-001
 11
0.0
 21
0.0
  0
ENDBLK
  5
d2
100
AcDbEntity
100
AcDbBlockEnd
  0
BLOCK
  5
d3
100
AcDbEntity
100
AcDbBlockBegin
  2
*TX128
  3
*TX
 10
0.0
 20
0.0
 70
65
  0
TEXT
  5
d4
100
AcDbEntity
  8
V0L1
100
AcDbText
  6
CONTINUOUS
 62
1
 10
0.0
 20
0.0
 40
5.0E-001
  1
       DXF-GA25700A
100
AcDbText
  0
TEXT
  5
d5
100
AcDbEntity
  8
V0L1
100
AcDbText
  6
CONTINUOUS
 62
1
 10
0.0
 20
-7.5E-001
 40
5.0E-001
  1
        KA4C5DP33L
100
AcDbText
  0
TEXT
  5
d6
100
AcDbEntity
  8
V0L1
100
AcDbText
  6
CONTINUOUS
 62
1
 10
0.0
 20
-1.5
 40
5.0E-001
  1
        8/9/11 DW-
100
AcDbText
  0
TEXT
  5
d7
100
AcDbEntity
  8
V0L1
100
AcDbText
  6
CONTINUOUS
 62
1
 10
0.0
 20
-2.25
 40
5.0E-001
  1
      KOOLTRONIC, INC.
100
AcDbText
  0
TEXT
  5
d8
100
AcDbEntity
  8
V0L1
100
AcDbText
  6
CONTINUOUS
 62
1
 10
0.0
 20
-3.0
 40
5.0E-001
  1
GEOMETRY IS SUBJECT TO CHANGE
100
AcDbText
  0
ENDBLK
  5
d9
100
AcDbEntity
100
AcDbBlockEnd
  0
BLOCK
  5
da
100
AcDbEntity
100
AcDbBlockBegin
  2
_AH1
 70
0
 10
0.0
 20
0.0
  3
_AH1
  0
LINE
  5
db
100
AcDbEntity
  8
V0L1
100
AcDbLine
  6
CONTINUOUS
 62
0
 10
-1.0
 20
1.66667E-001
 11
0.0
 21
0.0
  0
LINE
  5
dc
100
AcDbEntity
  8
V0L1
100
AcDbLine
  6
CONTINUOUS
 62
0
 10
0.0
 20
0.0
 11
-1.0
 21
-1.66667E-001
  0
LINE
  5
dd
100
AcDbEntity
  8
V0L1
100
AcDbLine
  6
CONTINUOUS
 62
0
 10
-1.0
 20
1.66667E-001
 11
-1.0
 21
-1.66667E-001
  0
LINE
  5
de
100
AcDbEntity
  8
V0L1
100
AcDbLine
  6
CONTINUOUS
 62
0
 10
0.0
 20
0.0
 11
-1.0
 21
0.0
  0
ENDBLK
  5
df
100
AcDbEntity
100
AcDbBlockEnd
  0
BLOCK
  5
e0
100
AcDbEntity
100
AcDbBlockBegin
  2
_AH2
 70
0
 10
0.0
 20
0.0
  3
_AH2
  0
LINE
  5
e1
100
AcDbEntity
  8
V0L1
100
AcDbLine
  6
CONTINUOUS
 62
0
 10
-1.0
 20
1.66667E-001
 11
0.0
 21
0.0
  0
LINE
  5
e2
100
AcDbEntity
  8
V0L1
100
AcDbLine
  6
CONTINUOUS
 62
0
 10
0.0
 20
0.0
 11
-1.0
 21
-1.66667E-001
  0
LINE
  5
e3
100
AcDbEntity
  8
V0L1
100
AcDbLine
  6
CONTINUOUS
 62
0
 10
0.0
 20
0.0
 11
-1.0
 21
0.0
  0
ENDBLK
  5
e4
100
AcDbEntity
100
AcDbBlockEnd
  0
ENDSEC
  0
SECTION
  2
ENTITIES
  0
TEXT
  5
e5
100
AcDbEntity
  8
V9L1
100
AcDbText
  6
CONTINUOUS
 62
1
 10
3.5033926E+001
 20
3.0311216E+001
 40
5.0E-001
  1
CUTOUT
100
AcDbText
  0
LINE
  5
e6
100
AcDbEntity
  8
V10L1
100
AcDbLine
  6
CONTINUOUS
 62
1
 10
4.1450943
 20
4.0640947E+001
 11
2.1450943
 21
4.0640947E+001
  0
LINE
  5
e7
100
AcDbEntity
  8
V10L1
100
AcDbLine
  6
CONTINUOUS
 62
1
 10
3.1450943
 20
4.1640947E+001
 11
3.1450943
 21
3.9640947E+001
  0
CIRCLE
  5
e8
100
AcDbEntity
  8
V9L1
100
AcDbCircle
  6
CONTINUOUS
 62
1
 10
3.6423909E+001
 20
7.3683035
 40
1.56E-001
  0
CIRCLE
  5
e9
100
AcDbEntity
  8
V9L1
100
AcDbCircle
  6
CONTINUOUS
 62
1
 10
4.3423909E+001
 20
7.3683035
 40
1.56E-001
  0
LINE
  5
ea
100
AcDbEntity
  8
V10L1
100
AcDbLine
  6
CONTINUOUS
 62
1
 10
4.6450943
 20
4.0640947E+001
 11
4.2850943
 21
4.0640947E+001
  0
LINE
  5
eb
100
AcDbEntity
  8
V10L1
100
AcDbLine
  6
CONTINUOUS
 62
1
 10
3.1450943
 20
4.2140947E+001
 11
3.1450943
 21
4.1780947E+001
  0
LINE
  5
ec
100
AcDbEntity
  8
V10L1
100
AcDbLine
  6
CONTINUOUS
 62
1
 10
1.6450943
 20
4.0640947E+001
 11
2.0050943
 21
4.0640947E+001
  0
LINE
  5
ed
100
AcDbEntity
  8
V10L1
100
AcDbLine
  6
CONTINUOUS
 62
1
 10
3.1450943
 20
3.9140947E+001
 11
3.1450943
 21
3.9500947E+001
  0
LINE
  5
ee
100
AcDbEntity
  8
V10L1
100
AcDbLine
  6
CONTINUOUS
 62
1
 10
1.1145094E+001
 20
4.0640947E+001
 11
9.1450943
 21
4.0640947E+001
  0
LINE
  5
ef
100
AcDbEntity
  8
V10L1
100
AcDbLine
  6
CONTINUOUS
 62
1
 10
1.0145094E+001
 20
4.1640947E+001
 11
1.0145094E+001
 21
3.9640947E+001
  0
LINE
  5
f0
100
AcDbEntity
  8
V10L1
100
AcDbLine
  6
CONTINUOUS
 62
1
 10
1.1645094E+001
 20
4.0640947E+001
 11
1.1285094E+001
 21
4.0640947E+001
  0
LINE
  5
f1
100
AcDbEntity
  8
V10L1
100
AcDbLine
  6
CONTINUOUS
 62
1
 10
1.0145094E+001
 20
4.2140947E+001
 11
1.0145094E+001
 21
4.1780947E+001
  0
LINE
  5
f2
100
AcDbEntity
  8
V10L1
100
AcDbLine
  6
CONTINUOUS
 62
1
 10
8.6450943
 20
4.0640947E+001
 11
9.0050943
 21
4.0640947E+001
  0
LINE
  5
f3
100
AcDbEntity
  8
V10L1
100
AcDbLine
  6
CONTINUOUS
 62
1
 10
1.0145094E+001
 20
3.9140947E+001
 11
1.0145094E+001
 21
3.9500947E+001
  0
LINE
  5
f4
100
AcDbEntity
  8
V10L1
100
AcDbLine
  6
CONTINUOUS
 62
1
 10
1.8145094E+001
 20
4.0640947E+001
 11
1.6145094E+001
 21
4.0640947E+001
  0
LINE
  5
f5
100
AcDbEntity
  8
V10L1
100
AcDbLine
  6
CONTINUOUS
 62
1
 10
1.7145094E+001
 20
4.1640947E+001
 11
1.7145094E+001
 21
3.9640947E+001
  0
LINE
  5
f6
100
AcDbEntity
  8
V10L1
100
AcDbLine
  6
CONTINUOUS
 62
1
 10
1.8645094E+001
 20
4.0640947E+001
 11
1.8285094E+001
 21
4.0640947E+001
  0
LINE
  5
f7
100
AcDbEntity
  8
V10L1
100
AcDbLine
  6
CONTINUOUS
 62
1
 10
1.7145094E+001
 20
4.2140947E+001
 11
1.7145094E+001
 21
4.1780947E+001
  0
LINE
  5
f8
100
AcDbEntity
  8
V10L1
100
AcDbLine
  6
CONTINUOUS
 62
1
 10
1.5645094E+001
 20
4.0640947E+001
 11
1.6005094E+001
 21
4.0640947E+001
  0
LINE
  5
f9
100
AcDbEntity
  8
V10L1
100
AcDbLine
  6
CONTINUOUS
 62
1
 10
1.7145094E+001
 20
3.9140947E+001
 11
1.7145094E+001
 21
3.9500947E+001
  0
LINE
  5
fa
100
AcDbEntity
  8
V10L1
100
AcDbLine
  6
CONTINUOUS
 62
1
 10
1.8120081E+001
 20
6.4726461
 11
1.6120081E+001
 21
6.4726461
  0
LINE
  5
fb
100
AcDbEntity
  8
V10L1
100
AcDbLine
  6
CONTINUOUS
 62
1
 10
1.7120081E+001
 20
7.4726461
 11
1.7120081E+001
 21
5.4726461
  0
LINE
  5
fc
100
AcDbEntity
  8
V10L1
100
AcDbLine
  6
CONTINUOUS
 62
1
 10
1.8620081E+001
 20
6.4726461
 11
1.8260081E+001
 21
6.4726461
  0
LINE
  5
fd
100
AcDbEntity
  8
V10L1
100
AcDbLine
  6
CONTINUOUS
 62
1
 10
1.7120081E+001
 20
7.9726461
 11
1.7120081E+001
 21
7.6126461
  0
LINE
  5
fe
100
AcDbEntity
  8
V10L1
100
AcDbLine
  6
CONTINUOUS
 62
1
 10
1.5620081E+001
 20
6.4726461
 11
1.5980081E+001
 21
6.4726461
  0
LINE
  5
ff
100
AcDbEntity
  8
V10L1
100
AcDbLine
  6
CONTINUOUS
 62
1
 10
1.7120081E+001
 20
4.9726461
 11
1.7120081E+001
 21
5.3326461
  0
LINE
  5
100
100
AcDbEntity
  8
V10L1
100
AcDbLine
  6
CONTINUOUS
 62
1
 10
1.1120081E+001
 20
6.4726461
 11
9.1200812
 21
6.4726461
  0
LINE
  5
101
100
AcDbEntity
  8
V10L1
100
AcDbLine
  6
CONTINUOUS
 62
1
 10
1.0120081E+001
 20
7.4726461
 11
1.0120081E+001
 21
5.4726461
  0
LINE
  5
102
100
AcDbEntity
  8
V10L1
100
AcDbLine
  6
CONTINUOUS
 62
1
 10
1.1620081E+001
 20
6.4726461
 11
1.1260081E+001
 21
6.4726461
  0
LINE
  5
103
100
AcDbEntity
  8
V10L1
100
AcDbLine
  6
CONTINUOUS
 62
1
 10
1.0120081E+001
 20
7.9726461
 11
1.0120081E+001
 21
7.6126461
  0
LINE
  5
104
100
AcDbEntity
  8
V10L1
100
AcDbLine
  6
CONTINUOUS
 62
1
 10
8.6200812
 20
6.4726461
 11
8.9800812
 21
6.4726461
  0
LINE
  5
105
100
AcDbEntity
  8
V9L1
100
AcDbLine
  6
HIDDEN
 62
1
 10
2.9145896E+001
 20
1.9418304E+001
 11
4.3625896E+001
 21
1.9418304E+001
  0
LINE
  5
106
100
AcDbEntity
  8
V10L1
100
AcDbLine
  6
CONTINUOUS
 62
1
 10
1.0120081E+001
 20
4.9726461
 11
1.0120081E+001
 21
5.3326461
  0
LINE
  5
107
100
AcDbEntity
  8
V10L1
100
AcDbLine
  6
CONTINUOUS
 62
1
 10
4.1200812
 20
6.4726461
 11
2.1200812
 21
6.4726461
  0
LINE
  5
108
100
AcDbEntity
  8
V10L1
100
AcDbLine
  6
CONTINUOUS
 62
1
 10
3.1200812
 20
7.4726461
 11
3.1200812
 21
5.4726461
  0
LINE
  5
109
100
AcDbEntity
  8
V10L1
100
AcDbLine
  6
CONTINUOUS
 62
1
 10
4.6200812
 20
6.4726461
 11
4.2600812
 21
6.4726461
  0
LINE
  5
10a
100
AcDbEntity
  8
V10L1
100
AcDbLine
  6
CONTINUOUS
 62
1
 10
3.1200812
 20
7.9726461
 11
3.1200812
 21
7.6126461
  0
LINE
  5
10b
100
AcDbEntity
  8
V9L1
100
AcDbLine
  6
HIDDEN
 62
1
 10
2.9145896E+001
 20
3.8837733E+001
 11
2.9145896E+001
 21
1.9418304E+001
  0
LINE
  5
10c
100
AcDbEntity
  8
V10L1
100
AcDbLine
  6
CONTINUOUS
 62
1
 10
1.6200812
 20
6.4726461
 11
1.9800812
 21
6.4726461
  0
LINE
  5
10d
100
AcDbEntity
  8
V10L1
100
AcDbLine
  6
CONTINUOUS
 62
1
 10
3.1200812
 20
4.9726461
 11
3.1200812
 21
5.3326461
  0
LINE
  5
10e
100
AcDbEntity
  8
V9L1
100
AcDbLine
  6
HIDDEN
 62
1
 10
4.3625896E+001
 20
3.8837733E+001
 11
4.3625896E+001
 21
1.9418304E+001
  0
TEXT
  5
10f
100
AcDbEntity
  8
V10L1
100
AcDbText
  6
CONTINUOUS
 62
1
 10
4.8085782
 20
2.8336263
 40
5.0E-001
  1
INTERIOR MOUNTING PLAN
100
AcDbText
  0
TEXT
  5
110
100
AcDbEntity
  8
V10L1
100
AcDbText
  6
CONTINUOUS
 62
1
 10
4.6368432
 20
1.322359E+001
 40
5.0E-001
  1
CUTOUT
100
AcDbText
  0
TEXT
  5
111
100
AcDbEntity
  8
V10L1
100
AcDbText
  6
CONTINUOUS
 62
1
 10
7.8139395
 20
2.3098349E+001
 40
5.0E-001
  1
CUTOUT
100
AcDbText
  0
TEXT
  5
112
100
AcDbEntity
  8
V10L1
100
AcDbText
  6
CONTINUOUS
 62
1
 10
-3.5577715
 20
4.6037176E+001
 40
1.25E-001
  1
MOUNTING PLAN FOR INTERNAL MOUNT
100
AcDbText
  0
LINE
  5
113
100
AcDbEntity
  8
V10L1
100
AcDbLine
  6
CONTINUOUS
 62
1
 10
1.8513594E+001
 20
4.1040947E+001
 11
1.8678094E+001
 21
4.1040947E+001
  0
LINE
  5
114
100
AcDbEntity
  8
V10L1
100
AcDbLine
  6
CONTINUOUS
 62
1
 10
1.8678094E+001
 20
3.9992947E+001
 11
1.8678094E+001
 21
4.1040947E+001
  0
LINE
  5
115
100
AcDbEntity
  8
V10L1
100
AcDbLine
  6
CONTINUOUS
 62
1
 10
1.6050812
 20
6.1726461
 11
1.8678094E+001
 21
6.1726461
  0
LINE
  5
116
100
AcDbEntity
  8
V10L1
100
AcDbLine
  6
CONTINUOUS
 62
1
 10
1.8678094E+001
 20
6.1726461
 11
1.8678094E+001
 21
4.1040947E+001
  0
LINE
  5
117
100
AcDbEntity
  8
V10L1
100
AcDbLine
  6
CONTINUOUS
 62
1
 10
1.8678094E+001
 20
4.1040947E+001
 11
1.6050812
 21
4.1040947E+001
  0
LINE
  5
118
100
AcDbEntity
  8
V10L1
100
AcDbLine
  6
CONTINUOUS
 62
1
 10
1.6050812
 20
4.1040947E+001
 11
1.6050812
 21
6.1726461
  0
LINE
  5
119
100
AcDbEntity
  8
V10L1
100
AcDbLine
  6
HIDDEN
 62
1
 10
2.7500943
 20
1.9787947E+001
 11
1.6650094E+001
 21
1.9787947E+001
  0
LINE
  5
11a
100
AcDbEntity
  8
V10L1
100
AcDbLine
  6
HIDDEN
 62
1
 10
1.6650094E+001
 20
1.9787947E+001
 11
1.6650094E+001
 21
2.6325947E+001
  0
LINE
  5
11b
100
AcDbEntity
  8
V10L1
100
AcDbLine
  6
HIDDEN
 62
1
 10
1.6650094E+001
 20
2.6325947E+001
 11
2.7500943
 21
2.6325947E+001
  0
LINE
  5
11c
100
AcDbEntity
  8
V10L1
100
AcDbLine
  6
HIDDEN
 62
1
 10
2.7500943
 20
2.6325947E+001
 11
2.7500943
 21
1.9787947E+001
  0
LINE
  5
11d
100
AcDbEntity
  8
V10L1
100
AcDbLine
  6
HIDDEN
 62
1
 10
2.9620943
 20
7.8509474
 11
9.8620943
 21
7.8509474
  0
LINE
  5
11e
100
AcDbEntity
  8
V10L1
100
AcDbLine
  6
HIDDEN
 62
1
 10
9.8620943
 20
7.8509474
 11
9.8620943
 21
1.7912947E+001
  0
LINE
  5
11f
100
AcDbEntity
  8
V10L1
100
AcDbLine
  6
HIDDEN
 62
1
 10
9.8620943
 20
1.7912947E+001
 11
2.9620943
 21
1.7912947E+001
  0
LINE
  5
120
100
AcDbEntity
  8
V10L1
100
AcDbLine
  6
HIDDEN
 62
1
 10
2.9620943
 20
1.7912947E+001
 11
2.9620943
 21
7.8509474
  0
CIRCLE
  5
121
100
AcDbEntity
  8
V10L1
100
AcDbCircle
  6
CONTINUOUS
 62
1
 10
1.7145094E+001
 20
4.0640947E+001
 40
1.56E-001
  0
CIRCLE
  5
122
100
AcDbEntity
  8
V10L1
100
AcDbCircle
  6
CONTINUOUS
 62
1
 10
1.0145094E+001
 20
4.0640947E+001
 40
1.56E-001
  0
CIRCLE
  5
123
100
AcDbEntity
  8
V10L1
100
AcDbCircle
  6
CONTINUOUS
 62
1
 10
3.1450943
 20
4.0640947E+001
 40
1.56E-001
  0
CIRCLE
  5
124
100
AcDbEntity
  8
V10L1
100
AcDbCircle
  6
CONTINUOUS
 62
1
 10
3.1200812
 20
6.4726461
 40
1.56E-001
  0
CIRCLE
  5
125
100
AcDbEntity
  8
V10L1
100
AcDbCircle
  6
CONTINUOUS
 62
1
 10
1.0120081E+001
 20
6.4726461
 40
1.56E-001
  0
CIRCLE
  5
126
100
AcDbEntity
  8
V10L1
100
AcDbCircle
  6
CONTINUOUS
 62
1
 10
1.7120081E+001
 20
6.4726461
 40
1.56E-001
  0
TEXT
  5
127
100
AcDbEntity
  8
V9L1
100
AcDbText
  6
CONTINUOUS
 62
1
 10
3.1685095E+001
 20
3.3488312
 40
5.0E-001
  1
EXTERIOR MOUNTING PLAN
100
AcDbText
  0
INSERT
  5
128
100
AcDbEntity
100
AcDbBlockReference
  2
*TX128
  8
V9L1
 10
2.8937336E+001
 20
4.5939095E+001
  0
LINE
  5
129
100
AcDbEntity
  8
V9L1
100
AcDbLine
  6
CONTINUOUS
 62
1
 10
3.0423909E+001
 20
7.3683035
 11
2.8423909E+001
 21
7.3683035
  0
LINE
  5
12a
100
AcDbEntity
  8
V9L1
100
AcDbLine
  6
CONTINUOUS
 62
1
 10
2.9423909E+001
 20
8.3683035
 11
2.9423909E+001
 21
6.3683035
  0
LINE
  5
12b
100
AcDbEntity
  8
V9L1
100
AcDbLine
  6
CONTINUOUS
 62
1
 10
3.0923909E+001
 20
7.3683035
 11
3.0563909E+001
 21
7.3683035
  0
LINE
  5
12c
100
AcDbEntity
  8
V9L1
100
AcDbLine
  6
CONTINUOUS
 62
1
 10
2.9423909E+001
 20
8.8683035
 11
2.9423909E+001
 21
8.5083035
  0
LINE
  5
12d
100
AcDbEntity
  8
V9L1
100
AcDbLine
  6
CONTINUOUS
 62
1
 10
2.7923909E+001
 20
7.3683035
 11
2.8283909E+001
 21
7.3683035
  0
LINE
  5
12e
100
AcDbEntity
  8
V9L1
100
AcDbLine
  6
CONTINUOUS
 62
1
 10
2.9423909E+001
 20
5.8683035
 11
2.9423909E+001
 21
6.2283035
  0
CIRCLE
  5
12f
100
AcDbEntity
  8
V9L1
100
AcDbCircle
  6
CONTINUOUS
 62
1
 10
2.9423909E+001
 20
7.3683035
 40
1.56E-001
  0
LINE
  5
130
100
AcDbEntity
  8
V9L1
100
AcDbLine
  6
CONTINUOUS
 62
1
 10
3.7423909E+001
 20
7.3683035
 11
3.5423909E+001
 21
7.3683035
  0
LINE
  5
131
100
AcDbEntity
  8
V9L1
100
AcDbLine
  6
CONTINUOUS
 62
1
 10
3.6423909E+001
 20
8.3683035
 11
3.6423909E+001
 21
6.3683035
  0
LINE
  5
132
100
AcDbEntity
  8
V9L1
100
AcDbLine
  6
CONTINUOUS
 62
1
 10
3.7923909E+001
 20
7.3683035
 11
3.7563909E+001
 21
7.3683035
  0
LINE
  5
133
100
AcDbEntity
  8
V9L1
100
AcDbLine
  6
CONTINUOUS
 62
1
 10
3.6423909E+001
 20
8.8683035
 11
3.6423909E+001
 21
8.5083035
  0
LINE
  5
134
100
AcDbEntity
  8
V9L1
100
AcDbLine
  6
CONTINUOUS
 62
1
 10
3.4923909E+001
 20
7.3683035
 11
3.5283909E+001
 21
7.3683035
  0
LINE
  5
135
100
AcDbEntity
  8
V9L1
100
AcDbLine
  6
CONTINUOUS
 62
1
 10
3.6423909E+001
 20
5.8683035
 11
3.6423909E+001
 21
6.2283035
  0
LINE
  5
136
100
AcDbEntity
  8
V9L1
100
AcDbLine
  6
CONTINUOUS
 62
1
 10
4.4423909E+001
 20
7.3683035
 11
4.2423909E+001
 21
7.3683035
  0
LINE
  5
137
100
AcDbEntity
  8
V9L1
100
AcDbLine
  6
CONTINUOUS
 62
1
 10
4.3423909E+001
 20
8.3683035
 11
4.3423909E+001
 21
6.3683035
  0
LINE
  5
138
100
AcDbEntity
  8
V9L1
100
AcDbLine
  6
CONTINUOUS
 62
1
 10
4.4923909E+001
 20
7.3683035
 11
4.4563909E+001
 21
7.3683035
  0
LINE
  5
139
100
AcDbEntity
  8
V9L1
100
AcDbLine
  6
CONTINUOUS
 62
1
 10
4.3423909E+001
 20
8.8683035
 11
4.3423909E+001
 21
8.5083035
  0
LINE
  5
13a
100
AcDbEntity
  8
V9L1
100
AcDbLine
  6
CONTINUOUS
 62
1
 10
4.1923909E+001
 20
7.3683035
 11
4.2283909E+001
 21
7.3683035
  0
LINE
  5
13b
100
AcDbEntity
  8
V9L1
100
AcDbLine
  6
CONTINUOUS
 62
1
 10
4.3423909E+001
 20
5.8683035
 11
4.3423909E+001
 21
6.2283035
  0
LINE
  5
13c
100
AcDbEntity
  8
V9L1
100
AcDbLine
  6
CONTINUOUS
 62
1
 10
3.7409163E+001
 20
4.0352245E+001
 11
3.5409163E+001
 21
4.0352245E+001
  0
LINE
  5
13d
100
AcDbEntity
  8
V9L1
100
AcDbLine
  6
CONTINUOUS
 62
1
 10
3.6409163E+001
 20
4.1352245E+001
 11
3.6409163E+001
 21
3.9352245E+001
  0
LINE
  5
13e
100
AcDbEntity
  8
V9L1
100
AcDbLine
  6
CONTINUOUS
 62
1
 10
3.7909163E+001
 20
4.0352245E+001
 11
3.7534163E+001
 21
4.0352245E+001
  0
LINE
  5
13f
100
AcDbEntity
  8
V9L1
100
AcDbLine
  6
CONTINUOUS
 62
1
 10
3.6409163E+001
 20
4.1852245E+001
 11
3.6409163E+001
 21
4.1477245E+001
  0
LINE
  5
140
100
AcDbEntity
  8
V9L1
100
AcDbLine
  6
CONTINUOUS
 62
1
 10
3.4909163E+001
 20
4.0352245E+001
 11
3.5284163E+001
 21
4.0352245E+001
  0
LINE
  5
141
100
AcDbEntity
  8
V9L1
100
AcDbLine
  6
CONTINUOUS
 62
1
 10
3.6409163E+001
 20
3.8852245E+001
 11
3.6409163E+001
 21
3.9227245E+001
  0
LINE
  5
142
100
AcDbEntity
  8
V9L1
100
AcDbLine
  6
CONTINUOUS
 62
1
 10
4.4666163E+001
 20
4.0352245E+001
 11
4.2666163E+001
 21
4.0352245E+001
  0
LINE
  5
143
100
AcDbEntity
  8
V9L1
100
AcDbLine
  6
CONTINUOUS
 62
1
 10
4.3666163E+001
 20
4.1352245E+001
 11
4.3666163E+001
 21
3.9352245E+001
  0
LINE
  5
144
100
AcDbEntity
  8
V9L1
100
AcDbLine
  6
CONTINUOUS
 62
1
 10
4.5166163E+001
 20
4.0352245E+001
 11
4.4791163E+001
 21
4.0352245E+001
  0
LINE
  5
145
100
AcDbEntity
  8
V9L1
100
AcDbLine
  6
CONTINUOUS
 62
1
 10
4.3666163E+001
 20
4.1852245E+001
 11
4.3666163E+001
 21
4.1477245E+001
  0
LINE
  5
146
100
AcDbEntity
  8
V9L1
100
AcDbLine
  6
CONTINUOUS
 62
1
 10
4.2166163E+001
 20
4.0352245E+001
 11
4.2541163E+001
 21
4.0352245E+001
  0
LINE
  5
147
100
AcDbEntity
  8
V9L1
100
AcDbLine
  6
CONTINUOUS
 62
1
 10
4.3666163E+001
 20
3.8852245E+001
 11
4.3666163E+001
 21
3.9227245E+001
  0
LINE
  5
148
100
AcDbEntity
  8
V9L1
100
AcDbLine
  6
HIDDEN
 62
1
 10
2.9145896E+001
 20
3.8837733E+001
 11
4.3625896E+001
 21
3.8837733E+001
  0
LINE
  5
149
100
AcDbEntity
  8
V9L1
100
AcDbLine
  6
CONTINUOUS
 62
1
 10
2.7865896E+001
 20
4.0888605E+001
 11
2.7865896E+001
 21
4.0936605E+001
  0
LINE
  5
14a
100
AcDbEntity
  8
V9L1
100
AcDbLine
  6
CONTINUOUS
 62
1
 10
2.7875896E+001
 20
4.0936605E+001
 11
2.7865896E+001
 21
4.0936605E+001
  0
LINE
  5
14b
100
AcDbEntity
  8
V9L1
100
AcDbLine
  6
CONTINUOUS
 62
1
 10
2.7865896E+001
 20
7.0683035
 11
4.4938909E+001
 21
7.0683035
  0
LINE
  5
14c
100
AcDbEntity
  8
V9L1
100
AcDbLine
  6
CONTINUOUS
 62
1
 10
4.4938909E+001
 20
7.0683035
 11
4.4938909E+001
 21
4.0936605E+001
  0
LINE
  5
14d
100
AcDbEntity
  8
V9L1
100
AcDbLine
  6
CONTINUOUS
 62
1
 10
4.4938909E+001
 20
4.0936605E+001
 11
2.7865896E+001
 21
4.0936605E+001
  0
LINE
  5
14e
100
AcDbEntity
  8
V9L1
100
AcDbLine
  6
CONTINUOUS
 62
1
 10
2.7865896E+001
 20
4.0936605E+001
 11
2.7865896E+001
 21
7.0683035
  0
LINE
  5
14f
100
AcDbEntity
  8
V9L1
100
AcDbLine
  6
CONTINUOUS
 62
1
 10
3.0152163E+001
 20
4.0352245E+001
 11
2.8152163E+001
 21
4.0352245E+001
  0
LINE
  5
150
100
AcDbEntity
  8
V9L1
100
AcDbLine
  6
CONTINUOUS
 62
1
 10
2.9152163E+001
 20
4.1352245E+001
 11
2.9152163E+001
 21
3.9352245E+001
  0
LINE
  5
151
100
AcDbEntity
  8
V9L1
100
AcDbLine
  6
CONTINUOUS
 62
1
 10
3.0652163E+001
 20
4.0352245E+001
 11
3.0277163E+001
 21
4.0352245E+001
  0
LINE
  5
152
100
AcDbEntity
  8
V9L1
100
AcDbLine
  6
CONTINUOUS
 62
1
 10
2.9152163E+001
 20
4.1852245E+001
 11
2.9152163E+001
 21
4.1477245E+001
  0
LINE
  5
153
100
AcDbEntity
  8
V9L1
100
AcDbLine
  6
CONTINUOUS
 62
1
 10
2.7652163E+001
 20
4.0352245E+001
 11
2.8027163E+001
 21
4.0352245E+001
  0
LINE
  5
154
100
AcDbEntity
  8
V9L1
100
AcDbLine
  6
CONTINUOUS
 62
1
 10
2.9152163E+001
 20
3.8852245E+001
 11
2.9152163E+001
 21
3.9227245E+001
  0
CIRCLE
  5
155
100
AcDbEntity
  8
V9L1
100
AcDbCircle
  6
CONTINUOUS
 62
1
 10
2.9152163E+001
 20
4.0352245E+001
 40
1.56E-001
  0
CIRCLE
  5
156
100
AcDbEntity
  8
V9L1
100
AcDbCircle
  6
CONTINUOUS
 62
1
 10
3.6409163E+001
 20
4.0352245E+001
 40
1.56E-001
  0
CIRCLE
  5
157
100
AcDbEntity
  8
V9L1
100
AcDbCircle
  6
CONTINUOUS
 62
1
 10
4.3666163E+001
 20
4.0352245E+001
 40
1.56E-001
  0
ENDSEC
  0
SECTION
  2
OBJECTS
  0
DICTIONARY
  5
158
100
AcDbDictionary
  3
ACAD_GROUP
350
159
  3
ACAD_MLINESTYLE
350
15a
  0
DICTIONARY
  5
159
102
{ACAD_REACTORS
330
158
102
}
100
AcDbDictionary
  0
DICTIONARY
  5
15a
102
{ACAD_REACTORS
330
158
102
}
100
AcDbDictionary
  3
STANDARD
350
15b
  0
MLINESTYLE
  5
15b
102
{ACAD_REACTORS
330
15a
102
}
100
AcDbMlineStyle
  2
STANDARD
 70
0
  3

 62
256
 51
9.0E+001
 52
9.0E+001
 71
2
 49
5.0E-001
 62
256
  6
BYLAYER
 49
-5.0E-001
 62
256
  6
BYLAYER
  0
ENDSEC
  0
EOF
