  0
SECTION
  2
HEADER
  9
$ACADVER
  1
AC1014
999
I-DEAS 13 NX
  9
$EXTMIN
 10
0.0
 20
0.0
  9
$EXTMAX
 10
3.3E+001
 20
5.5E+001
  9
$TEXTSIZE
 40
1.25E-001
  9
$LTSCALE
 40
1.0
  9
$CLAYER
  8
V1L1
  9
$CECOLOR
 62
1
  9
$DIMASZ
 40
1.25E-001
  9
$DIMEXO
 40
6.25E-002
  9
$DIMDLI
 40
2.5E-001
  9
$DIMEXE
 40
1.25E-001
  9
$DIMTP
 40
5.0E-003
  9
$DIMTM
 40
-5.0E-003
  9
$DIMTXT
 40
1.25E-001
  9
$DIMLIM
 70
0
  9
$DIMTIH
 70
1
  9
$DIMTOH
 70
1
  9
$DIMSE1
 70
0
  9
$DIMSE2
 70
0
  9
$DIMTAD
 70
0
  9
$DIMASO
 70
1
  9
$DIMALT
 70
0
  9
$DIMALTD
 70
0
  9
$DIMTOFL
 70
1
  9
$DIMTIX
 70
0
  9
$DIMSAH
 70
0
  9
$DIMSTYLE
  2
DSTYLE1
  9
$DIMTFAC
 40
1.0
  9
$DIMGAP
 40
6.25E-002
  9
$LUNITS
 70
2
  9
$LUPREC
 70
3
  9
$FILLETRAD
 40
2.5E-001
  9
$AUNITS
 70
0
  9
$AUPREC
 70
1
  9
$CHAMFERA
 40
2.5E-001
  9
$CHAMFERB
 40
2.5E-001
  9
$ANGBASE
 50
0.0
  9
$ANGDIR
 70
0
  9
$PEXTMIN
 10
0.0
 20
0.0
 30
0.0
  9
$PEXTMAX
 10
3.3E+001
 20
5.5E+001
 30
0.0
  9
$PLIMMIN
 10
0.0
 20
0.0
  9
$PLIMMAX
 10
3.3E+001
 20
5.5E+001
  9
$PDMODE
 70
2
  9
$PDSIZE
 40
-1.0E-002
  9
$SPLINETYPE
 70
6
  9
$TILEMODE
 70
1
  9
$HANDLING
 70
1
  9
$HANDSEED
  5
f4240
  0
ENDSEC
  0
SECTION
  2
TABLES
  0
TABLE
  2
VPORT
  5
64
100
AcDbSymbolTable
 70
2
  0
VPORT
  5
65
100
AcDbSymbolTableRecord
100
AcDbViewportTableRecord
  2
*Active
 70
0
 10
0.0
 20
0.0
 11
3.3E+001
 21
5.5E+001
 12
1.65E+001
 22
2.75E+001
 13
0.0
 23
0.0
 14
1.0
 24
1.0
 15
0.0
 25
0.0
 16
0.0
 26
0.0
 36
1.0
 17
0.0
 27
0.0
 37
0.0
 40
5.5E+001
 41
6.0E-001
 42
5.0E+001
 43
0.0
 44
0.0
 50
0.0
 51
0.0
 71
0
 72
1000
 73
1
 74
3
 75
0
 76
0
 77
0
 78
0
  0
ENDTAB
  0
TABLE
  2
LTYPE
  5
66
100
AcDbSymbolTable
 70
7
  0
LTYPE
  5
67
100
AcDbSymbolTableRecord
100
AcDbLinetypeTableRecord
  2
BYBLOCK
 70
0
  3

 72
65
 73
0
 40
0.0
  0
LTYPE
  5
68
100
AcDbSymbolTableRecord
100
AcDbLinetypeTableRecord
  2
BYLAYER
 70
0
  3

 72
65
 73
0
 40
0.0
  0
LTYPE
  5
69
100
AcDbSymbolTableRecord
100
AcDbLinetypeTableRecord
  2
CONTINUOUS
 70
0
  3

 72
65
 73
0
 40
0.0
  0
LTYPE
  5
6a
100
AcDbSymbolTableRecord
100
AcDbLinetypeTableRecord
  2
HIDDENNEW0
  3
_ 
 70
64
 72
65
 73
3
 40
1.875E-001
 49
6.25E-002
 74
0
 49
-6.25E-002
 74
0
 49
6.25E-002
 74
0
  0
LTYPE
  5
6b
100
AcDbSymbolTableRecord
100
AcDbLinetypeTableRecord
  2
HIDDENNEW1
  3
_ 
 70
64
 72
65
 73
3
 40
1.875E-001
 49
6.25E-002
 74
0
 49
-6.25E-002
 74
0
 49
6.25E-002
 74
0
  0
LTYPE
  5
6c
100
AcDbSymbolTableRecord
100
AcDbLinetypeTableRecord
  2
HIDDEN
  3
_ 
 70
64
 72
65
 73
3
 40
1.875E-001
 49
6.25E-002
 74
0
 49
-6.25E-002
 74
0
 49
6.25E-002
 74
0
  0
LTYPE
  5
6d
100
AcDbSymbolTableRecord
100
AcDbLinetypeTableRecord
  2
CENTERLINE
  3
_ 
 70
64
 72
65
 73
5
 40
1.25
 49
5.0E-001
 74
0
 49
-6.25E-002
 74
0
 49
1.25E-001
 74
0
 49
-6.25E-002
 74
0
 49
5.0E-001
 74
0
  0
LTYPE
  5
6e
100
AcDbSymbolTableRecord
100
AcDbLinetypeTableRecord
  2
PHANTOM
  3
_ 
 70
64
 72
65
 73
7
 40
1.1875
 49
3.75E-001
 74
0
 49
-6.25E-002
 74
0
 49
1.25E-001
 74
0
 49
-6.25E-002
 74
0
 49
1.25E-001
 74
0
 49
-6.25E-002
 74
0
 49
3.75E-001
 74
0
  0
LTYPE
  5
6f
100
AcDbSymbolTableRecord
100
AcDbLinetypeTableRecord
  2
SHORT_DASH
  3
_ 
 70
64
 72
65
 73
3
 40
1.25E-001
 49
3.125E-002
 74
0
 49
-6.25E-002
 74
0
 49
3.125E-002
 74
0
  0
LTYPE
  5
70
100
AcDbSymbolTableRecord
100
AcDbLinetypeTableRecord
  2
LONG_DASH
  3
_ 
 70
64
 72
65
 73
3
 40
3.75E-001
 49
9.375E-002
 74
0
 49
-1.875E-001
 74
0
 49
9.375E-002
 74
0
  0
ENDTAB
  0
TABLE
  2
LAYER
  5
71
100
AcDbSymbolTable
 70
258
  0
LAYER
  5
72
100
AcDbSymbolTableRecord
100
AcDbLayerTableRecord
  2
0
 70
0
 62
7
  6
CONTINUOUS
  0
LAYER
  5
73
100
AcDbSymbolTableRecord
100
AcDbLayerTableRecord
  2
V1L0
 70
0
 62
7
  6
CONTINUOUS
  0
LAYER
  5
74
100
AcDbSymbolTableRecord
100
AcDbLayerTableRecord
  2
V2L0
 70
0
 62
7
  6
CONTINUOUS
  0
LAYER
  5
75
100
AcDbSymbolTableRecord
100
AcDbLayerTableRecord
  2
Drafting_Hidden_Entities
 70
1
 62
7
  6
CONTINUOUS
  0
ENDTAB
  0
TABLE
  2
STYLE
  5
76
100
AcDbSymbolTable
 70
1
  0
STYLE
  5
77
100
AcDbSymbolTableRecord
100
AcDbTextStyleTableRecord
  2
STANDARD
 70
64
 40
0.0
 41
1.0
 50
0.0
 71
0
 42
1.0
  3
monotxt.shx
  4

  0
ENDTAB
  0
TABLE
  2
VIEW
  5
78
100
AcDbSymbolTable
 70
0
  0
ENDTAB
  0
TABLE
  2
UCS
  5
79
100
AcDbSymbolTable
 70
0
  0
ENDTAB
  0
TABLE
  2
APPID
  5
7a
100
AcDbSymbolTable
 70
1
  0
APPID
  5
7b
100
AcDbSymbolTableRecord
100
AcDbRegAppTableRecord
  2
ACAD
 70
1
  0
ENDTAB
  0
TABLE
  2
DIMSTYLE
  5
7c
100
AcDbSymbolTable
 70
0
  0
ENDTAB
  0
TABLE
  2
BLOCK_RECORD
  5
7d
100
AcDbSymbolTable
 70
0
  0
BLOCK_RECORD
  5
7e
100
AcDbSymbolTableRecord
100
AcDbBlockTableRecord
  2
*MODEL_SPACE
  0
BLOCK_RECORD
  5
7f
100
AcDbSymbolTableRecord
100
AcDbBlockTableRecord
  2
*PAPER_SPACE
  0
BLOCK_RECORD
  5
80
100
AcDbSymbolTableRecord
100
AcDbBlockTableRecord
  2
_AH1
  0
BLOCK_RECORD
  5
81
100
AcDbSymbolTableRecord
100
AcDbBlockTableRecord
  2
_AH2
  0
BLOCK_RECORD
  5
82
100
AcDbSymbolTableRecord
100
AcDbBlockTableRecord
  2
_AH12
  3
_AH
  0
BLOCK_RECORD
  5
83
100
AcDbSymbolTableRecord
100
AcDbBlockTableRecord
  2
_AH13
  3
_AH
  0
BLOCK_RECORD
  5
84
100
AcDbSymbolTableRecord
100
AcDbBlockTableRecord
  2
_AH14
  3
_AH
  0
BLOCK_RECORD
  5
85
100
AcDbSymbolTableRecord
100
AcDbBlockTableRecord
  2
_AH15
  3
_AH
  0
BLOCK_RECORD
  5
86
100
AcDbSymbolTableRecord
100
AcDbBlockTableRecord
  2
_AH16
  3
_AH
  0
BLOCK_RECORD
  5
87
100
AcDbSymbolTableRecord
100
AcDbBlockTableRecord
  2
_AH17
  3
_AH
  0
BLOCK_RECORD
  5
88
100
AcDbSymbolTableRecord
100
AcDbBlockTableRecord
  2
_AH18
  3
_AH
  0
BLOCK_RECORD
  5
89
100
AcDbSymbolTableRecord
100
AcDbBlockTableRecord
  2
_AH19
  3
_AH
  0
BLOCK_RECORD
  5
8a
100
AcDbSymbolTableRecord
100
AcDbBlockTableRecord
  2
_AH20
  3
_AH
  0
BLOCK_RECORD
  5
8b
100
AcDbSymbolTableRecord
100
AcDbBlockTableRecord
  2
_AH21
  3
_AH
  0
BLOCK_RECORD
  5
8c
100
AcDbSymbolTableRecord
100
AcDbBlockTableRecord
  2
POINTSYMBOL
  0
BLOCK_RECORD
  5
8d
100
AcDbSymbolTableRecord
100
AcDbBlockTableRecord
  2
*TX26
  3
*TX
  0
BLOCK_RECORD
  5
8e
100
AcDbSymbolTableRecord
100
AcDbBlockTableRecord
  2
*VIEW1
  0
BLOCK_RECORD
  5
8f
100
AcDbSymbolTableRecord
100
AcDbBlockTableRecord
  2
*VIEW2
  0
ENDTAB
  0
ENDSEC
  0
SECTION
  2
BLOCKS
  0
BLOCK
  5
90
100
AcDbEntity
100
AcDbBlockBegin
  2
*MODEL_SPACE
 70
0
 10
0.0
 20
0.0
 30
0.0
  3
*MODEL_SPACE
  1

  0
ENDBLK
  5
91
100
AcDbEntity
100
AcDbBlockEnd
  0
BLOCK
  5
92
100
AcDbEntity
100
AcDbBlockBegin
  2
*PAPER_SPACE
 70
0
 10
0.0
 20
0.0
 30
0.0
  3
*PAPER_SPACE
  1

  0
ENDBLK
  5
93
100
AcDbEntity
100
AcDbBlockEnd
  0
BLOCK
  5
94
100
AcDbEntity
100
AcDbBlockBegin
  2
*VIEW1
  3
*VIEW
 10
0.0
 20
0.0
 70
65
  0
TEXT
  5
95
100
AcDbEntity
  8
V0L1
100
AcDbText
  6
CONTINUOUS
 62
211
 10
0.0
 20
0.0
 40
1.0
  1
BV1XL0.0YL0.0XH3.3E+001YH5.5E+001
 41
1.25E-001
 50
1.0
 51
1.0
100
AcDbText
  0
TEXT
  5
96
100
AcDbEntity
  8
V0L1
100
AcDbText
  6
CONTINUOUS
 62
211
 10
0.0
 20
0.0
 40
1.0
  1
DV1X0.0Y0.0S1.0N1-MAIN
 41
1.25E-001
 50
1.0
 51
1.0
100
AcDbText
  0
ENDBLK
  5
97
100
AcDbEntity
100
AcDbBlockEnd
  0
BLOCK
  5
98
100
AcDbEntity
100
AcDbBlockBegin
  2
*VIEW2
  3
*VIEW
 10
0.0
 20
0.0
 70
65
  0
TEXT
  5
99
100
AcDbEntity
  8
V0L1
100
AcDbText
  6
CONTINUOUS
 62
211
 10
0.0
 20
0.0
 40
1.0
  1
BV2XL2.775658E-001YL8.578845E-001XH3.2027688E+001YH5.4603406E+001
 41
1.25E-001
 50
1.0
 51
1.0
100
AcDbText
  0
TEXT
  5
9a
100
AcDbEntity
  8
V0L1
100
AcDbText
  6
CONTINUOUS
 62
211
 10
0.0
 20
0.0
 40
1.0
  1
DV2X-2.6117817Y3.7251251E+001S1.0N
 41
1.25E-001
 50
1.0
 51
1.0
100
AcDbText
  0
ENDBLK
  5
9b
100
AcDbEntity
100
AcDbBlockEnd
  0
BLOCK
  5
9c
100
AcDbEntity
100
AcDbBlockBegin
  2
_AH12
  3
_AH
 10
0.0
 20
0.0
 70
64
  0
LINE
  5
9d
100
AcDbEntity
  8
V0L1
100
AcDbLine
  6
CONTINUOUS
 62
0
 10
0.0
 20
0.0
 11
1.0
 21
0.0
  0
LINE
  5
9e
100
AcDbEntity
  8
V0L1
100
AcDbLine
  6
CONTINUOUS
 62
0
 10
0.0
 20
0.0
 11
-1.0
 21
0.0
  0
ENDBLK
  5
9f
100
AcDbEntity
100
AcDbBlockEnd
  0
BLOCK
  5
a0
100
AcDbEntity
100
AcDbBlockBegin
  2
_AH13
  3
_AH
 10
0.0
 20
0.0
 70
64
  0
SOLID
  5
a1
100
AcDbEntity
  8
V0L1
100
AcDbTrace
  6
CONTINUOUS
 62
0
 10
0.0
 20
0.0
 11
1.0
 21
-1.66667E-001
 12
1.0
 22
1.66667E-001
 13
0.0
 23
0.0
  0
ENDBLK
  5
a2
100
AcDbEntity
100
AcDbBlockEnd
  0
BLOCK
  5
a3
100
AcDbEntity
100
AcDbBlockBegin
  2
_AH14
  3
_AH
 10
0.0
 20
0.0
 70
64
  0
ENDBLK
  5
a4
100
AcDbEntity
100
AcDbBlockEnd
  0
BLOCK
  5
a5
100
AcDbEntity
100
AcDbBlockBegin
  2
_AH15
  3
_AH
 10
0.0
 20
0.0
 70
64
  0
CIRCLE
  5
a6
100
AcDbEntity
  8
V0L1
100
AcDbCircle
  6
CONTINUOUS
 62
0
 10
0.0
 20
0.0
 40
1.66667E-001
  0
LINE
  5
a7
100
AcDbEntity
  8
V0L1
100
AcDbLine
  6
CONTINUOUS
 62
0
 10
0.0
 20
0.0
 11
-1.0
 21
0.0
  0
ENDBLK
  5
a8
100
AcDbEntity
100
AcDbBlockEnd
  0
BLOCK
  5
a9
100
AcDbEntity
100
AcDbBlockBegin
  2
_AH16
  3
_AH
 10
0.0
 20
0.0
 70
64
  0
POLYLINE
  5
aa
100
AcDbEntity
  8
V0L1
100
AcDb2dPolyline
  6
CONTINUOUS
 62
0
 66
1
 40
9.375E-002
 41
9.375E-002
 70
0
  0
VERTEX
  5
ab
100
AcDbEntity
  8
V0L1
100
AcDbVertex
100
AcDb2dVertex
 42
1.0
 10
8.3335E-002
 20
0.0
 70
0
  0
VERTEX
  5
ac
100
AcDbEntity
  8
V0L1
100
AcDbVertex
100
AcDb2dVertex
 42
1.0
 10
-8.3335E-002
 20
0.0
 70
0
  0
VERTEX
  5
ad
100
AcDbEntity
  8
V0L1
100
AcDbVertex
100
AcDb2dVertex
 42
0.0
 10
8.3335E-002
 20
0.0
 70
0
  0
SEQEND
  5
ae
100
AcDbEntity
  0
LINE
  5
af
100
AcDbEntity
  8
V0L1
100
AcDbLine
  6
CONTINUOUS
 62
0
 10
0.0
 20
0.0
 11
-1.0
 21
0.0
  0
ENDBLK
  5
b0
100
AcDbEntity
100
AcDbBlockEnd
  0
BLOCK
  5
b1
100
AcDbEntity
100
AcDbBlockBegin
  2
_AH17
  3
_AH
 10
0.0
 20
0.0
 70
64
  0
LINE
  5
b2
100
AcDbEntity
  8
V0L1
100
AcDbLine
  6
CONTINUOUS
 62
0
 10
-1.66667E-001
 20
-1.66667E-001
 11
1.66667E-001
 21
-1.66667E-001
  0
LINE
  5
b3
100
AcDbEntity
  8
V0L1
100
AcDbLine
  6
CONTINUOUS
 62
0
 10
1.66667E-001
 20
-1.66667E-001
 11
1.66667E-001
 21
1.66667E-001
  0
LINE
  5
b4
100
AcDbEntity
  8
V0L1
100
AcDbLine
  6
CONTINUOUS
 62
0
 10
1.66667E-001
 20
1.66667E-001
 11
-1.66667E-001
 21
1.66667E-001
  0
LINE
  5
b5
100
AcDbEntity
  8
V0L1
100
AcDbLine
  6
CONTINUOUS
 62
0
 10
-1.66667E-001
 20
1.66667E-001
 11
-1.66667E-001
 21
-1.66667E-001
  0
LINE
  5
b6
100
AcDbEntity
  8
V0L1
100
AcDbLine
  6
CONTINUOUS
 62
0
 10
0.0
 20
0.0
 11
-1.0
 21
0.0
  0
ENDBLK
  5
b7
100
AcDbEntity
100
AcDbBlockEnd
  0
BLOCK
  5
b8
100
AcDbEntity
100
AcDbBlockBegin
  2
_AH18
  3
_AH
 10
0.0
 20
0.0
 70
64
  0
SOLID
  5
b9
100
AcDbEntity
  8
V0L1
100
AcDbTrace
  6
CONTINUOUS
 62
0
 10
-1.66667E-001
 20
-1.66667E-001
 11
1.66667E-001
 21
-1.66667E-001
 12
-1.66667E-001
 22
1.66667E-001
 13
1.66667E-001
 23
1.66667E-001
  0
LINE
  5
ba
100
AcDbEntity
  8
V0L1
100
AcDbLine
  6
CONTINUOUS
 62
0
 10
0.0
 20
0.0
 11
-1.0
 21
0.0
  0
ENDBLK
  5
bb
100
AcDbEntity
100
AcDbBlockEnd
  0
BLOCK
  5
bc
100
AcDbEntity
100
AcDbBlockBegin
  2
_AH19
  3
_AH
 10
0.0
 20
0.0
 70
64
  0
LINE
  5
bd
100
AcDbEntity
  8
V0L1
100
AcDbLine
  6
CONTINUOUS
 62
0
 10
-5.0E-001
 20
-5.0E-001
 11
5.0E-001
 21
5.0E-001
  0
LINE
  5
be
100
AcDbEntity
  8
V0L1
100
AcDbLine
  6
CONTINUOUS
 62
0
 10
0.0
 20
0.0
 11
-1.0
 21
0.0
  0
ENDBLK
  5
bf
100
AcDbEntity
100
AcDbBlockEnd
  0
BLOCK
  5
c0
100
AcDbEntity
100
AcDbBlockBegin
  2
_AH20
  3
_AH
 10
0.0
 20
0.0
 70
64
  0
POLYLINE
  5
c1
100
AcDbEntity
  8
V0L1
100
AcDb2dPolyline
  6
CONTINUOUS
 62
0
 66
1
 40
2.0E-002
 41
2.0E-002
 70
0
  0
VERTEX
  5
c2
100
AcDbEntity
  8
V0L1
100
AcDbVertex
100
AcDb2dVertex
 42
4.1421356E-001
 10
-1.66667E-001
 20
-1.66667E-001
 70
0
  0
VERTEX
  5
c3
100
AcDbEntity
  8
V0L1
100
AcDbVertex
100
AcDb2dVertex
 42
0.0
 10
0.0
 20
0.0
 70
0
  0
SEQEND
  5
c4
100
AcDbEntity
  0
POLYLINE
  5
c5
100
AcDbEntity
  8
V0L1
100
AcDb2dPolyline
  6
CONTINUOUS
 62
0
 66
1
 40
2.0E-002
 41
2.0E-002
 70
0
  0
VERTEX
  5
c6
100
AcDbEntity
  8
V0L1
100
AcDbVertex
100
AcDb2dVertex
 42
4.1421356E-001
 10
1.66667E-001
 20
1.66667E-001
 70
0
  0
VERTEX
  5
c7
100
AcDbEntity
  8
V0L1
100
AcDbVertex
100
AcDb2dVertex
 42
0.0
 10
0.0
 20
0.0
 70
0
  0
SEQEND
  5
c8
100
AcDbEntity
  0
LINE
  5
c9
100
AcDbEntity
  8
V0L1
100
AcDbLine
  6
CONTINUOUS
 62
0
 10
0.0
 20
0.0
 11
-1.0
 21
0.0
  0
ENDBLK
  5
ca
100
AcDbEntity
100
AcDbBlockEnd
  0
BLOCK
  5
cb
100
AcDbEntity
100
AcDbBlockBegin
  2
_AH21
  3
_AH
 10
0.0
 20
0.0
 70
64
  0
LINE
  5
cc
100
AcDbEntity
  8
V0L1
100
AcDbLine
  6
CONTINUOUS
 62
0
 10
0.0
 20
0.0
 11
-1.0
 21
-1.66667E-001
  0
LINE
  5
cd
100
AcDbEntity
  8
V0L1
100
AcDbLine
  6
CONTINUOUS
 62
0
 10
-1.0
 20
-1.66667E-001
 11
-1.0
 21
1.66667E-001
  0
LINE
  5
ce
100
AcDbEntity
  8
V0L1
100
AcDbLine
  6
CONTINUOUS
 62
0
 10
-1.0
 20
1.66667E-001
 11
0.0
 21
0.0
  0
ENDBLK
  5
cf
100
AcDbEntity
100
AcDbBlockEnd
  0
BLOCK
  5
d0
100
AcDbEntity
100
AcDbBlockBegin
  2
POINTSYMBOL
 10
0.0
 20
0.0
 70
0
  0
LINE
  5
d1
100
AcDbEntity
  8
V0L1
100
AcDbLine
  6
CONTINUOUS
 62
1
 10
0.0
 20
-5.0E-001
 11
0.0
 21
5.0E-001
  0
LINE
  5
d2
100
AcDbEntity
  8
V0L1
100
AcDbLine
  6
CONTINUOUS
 62
1
 10
-5.0E-001
 20
0.0
 11
5.0E-001
 21
0.0
  0
ENDBLK
  5
d3
100
AcDbEntity
100
AcDbBlockEnd
  0
BLOCK
  5
d4
100
AcDbEntity
100
AcDbBlockBegin
  2
*TX26
  3
*TX
 10
0.0
 20
0.0
 70
65
  0
TEXT
  5
d5
100
AcDbEntity
  8
V0L1
100
AcDbText
  6
CONTINUOUS
 62
1
 10
0.0
 20
0.0
 40
1.0
  1
      DXF-GA202528A
100
AcDbText
  0
TEXT
  5
d6
100
AcDbEntity
  8
V0L1
100
AcDbText
  6
CONTINUOUS
 62
1
 10
0.0
 20
-1.5
 40
1.0
  1
       KNA4C4SP28L
100
AcDbText
  0
TEXT
  5
d7
100
AcDbEntity
  8
V0L1
100
AcDbText
  6
CONTINUOUS
 62
1
 10
0.0
 20
-3.0
 40
1.0
  1
        9/3/15 DW-
100
AcDbText
  0
TEXT
  5
d8
100
AcDbEntity
  8
V0L1
100
AcDbText
  6
CONTINUOUS
 62
1
 10
0.0
 20
-4.5
 40
1.0
  1
      KOOLTRONIC, INC.
100
AcDbText
  0
TEXT
  5
d9
100
AcDbEntity
  8
V0L1
100
AcDbText
  6
CONTINUOUS
 62
1
 10
0.0
 20
-6.0
 40
1.0
  1
GEOMETRY IS SUBJECT TO CHANGE
100
AcDbText
  0
ENDBLK
  5
da
100
AcDbEntity
100
AcDbBlockEnd
  0
BLOCK
  5
db
100
AcDbEntity
100
AcDbBlockBegin
  2
_AH1
 70
0
 10
0.0
 20
0.0
  3
_AH1
  0
LINE
  5
dc
100
AcDbEntity
  8
V0L1
100
AcDbLine
  6
CONTINUOUS
 62
0
 10
-1.0
 20
1.66667E-001
 11
0.0
 21
0.0
  0
LINE
  5
dd
100
AcDbEntity
  8
V0L1
100
AcDbLine
  6
CONTINUOUS
 62
0
 10
0.0
 20
0.0
 11
-1.0
 21
-1.66667E-001
  0
LINE
  5
de
100
AcDbEntity
  8
V0L1
100
AcDbLine
  6
CONTINUOUS
 62
0
 10
-1.0
 20
1.66667E-001
 11
-1.0
 21
-1.66667E-001
  0
LINE
  5
df
100
AcDbEntity
  8
V0L1
100
AcDbLine
  6
CONTINUOUS
 62
0
 10
0.0
 20
0.0
 11
-1.0
 21
0.0
  0
ENDBLK
  5
e0
100
AcDbEntity
100
AcDbBlockEnd
  0
BLOCK
  5
e1
100
AcDbEntity
100
AcDbBlockBegin
  2
_AH2
 70
0
 10
0.0
 20
0.0
  3
_AH2
  0
LINE
  5
e2
100
AcDbEntity
  8
V0L1
100
AcDbLine
  6
CONTINUOUS
 62
0
 10
-1.0
 20
1.66667E-001
 11
0.0
 21
0.0
  0
LINE
  5
e3
100
AcDbEntity
  8
V0L1
100
AcDbLine
  6
CONTINUOUS
 62
0
 10
0.0
 20
0.0
 11
-1.0
 21
-1.66667E-001
  0
LINE
  5
e4
100
AcDbEntity
  8
V0L1
100
AcDbLine
  6
CONTINUOUS
 62
0
 10
0.0
 20
0.0
 11
-1.0
 21
0.0
  0
ENDBLK
  5
e5
100
AcDbEntity
100
AcDbBlockEnd
  0
ENDSEC
  0
SECTION
  2
ENTITIES
  0
LINE
  5
e6
100
AcDbEntity
  8
V2L2
100
AcDbLine
  6
SHORT_DASH
 62
1
 10
1.8109218E+001
 20
2.4343251E+001
 11
9.6092183
 21
2.4343251E+001
  0
LINE
  5
e7
100
AcDbEntity
  8
V2L2
100
AcDbLine
  6
SHORT_DASH
 62
1
 10
1.8109218E+001
 20
1.5843251E+001
 11
1.8109218E+001
 21
2.4343251E+001
  0
LINE
  5
e8
100
AcDbEntity
  8
V2L2
100
AcDbLine
  6
SHORT_DASH
 62
1
 10
9.6092183
 20
2.4343251E+001
 11
9.6092183
 21
1.5843251E+001
  0
LINE
  5
e9
100
AcDbEntity
  8
V2L2
100
AcDbLine
  6
CONTINUOUS
 62
1
 10
7.9969033
 20
1.3307702E+001
 11
1.9740436E+001
 21
1.3307702E+001
  0
LINE
  5
ea
100
AcDbEntity
  8
V2L2
100
AcDbLine
  6
CONTINUOUS
 62
1
 10
1.9740436E+001
 20
1.3307702E+001
 11
1.9740436E+001
 21
4.1247749E+001
  0
LINE
  5
eb
100
AcDbEntity
  8
V2L2
100
AcDbLine
  6
CONTINUOUS
 62
1
 10
1.9740436E+001
 20
4.1247749E+001
 11
7.9969033
 21
4.1247749E+001
  0
LINE
  5
ec
100
AcDbEntity
  8
V2L2
100
AcDbLine
  6
CONTINUOUS
 62
1
 10
7.9969033
 20
4.1247749E+001
 11
7.9969033
 21
1.3307702E+001
  0
LINE
  5
ed
100
AcDbEntity
  8
V2L2
100
AcDbLine
  6
SHORT_DASH
 62
1
 10
9.1092183
 20
2.7643251E+001
 11
1.8609218E+001
 21
2.7643251E+001
  0
LINE
  5
ee
100
AcDbEntity
  8
V2L2
100
AcDbLine
  6
SHORT_DASH
 62
1
 10
1.8609218E+001
 20
2.7643251E+001
 11
1.8609218E+001
 21
4.0333251E+001
  0
LINE
  5
ef
100
AcDbEntity
  8
V2L2
100
AcDbLine
  6
SHORT_DASH
 62
1
 10
1.8609218E+001
 20
4.0333251E+001
 11
9.1092183
 21
4.0333251E+001
  0
LINE
  5
f0
100
AcDbEntity
  8
V2L2
100
AcDbLine
  6
SHORT_DASH
 62
1
 10
9.1092183
 20
4.0333251E+001
 11
9.1092183
 21
2.7643251E+001
  0
LINE
  5
f1
100
AcDbEntity
  8
V2L2
100
AcDbLine
  6
SHORT_DASH
 62
1
 10
9.6092183
 20
1.5843251E+001
 11
1.8109218E+001
 21
1.5843251E+001
  0
CIRCLE
  5
f2
100
AcDbEntity
  8
V2L2
100
AcDbCircle
  6
CONTINUOUS
 62
1
 10
8.8470163
 20
1.4593251E+001
 40
1.56E-001
  0
CIRCLE
  5
f3
100
AcDbEntity
  8
V2L2
100
AcDbCircle
  6
CONTINUOUS
 62
1
 10
1.884544E+001
 20
1.4593251E+001
 40
1.56E-001
  0
CIRCLE
  5
f4
100
AcDbEntity
  8
V2L2
100
AcDbCircle
  6
CONTINUOUS
 62
1
 10
1.8845281E+001
 20
2.4343251E+001
 40
1.56E-001
  0
CIRCLE
  5
f5
100
AcDbEntity
  8
V2L2
100
AcDbCircle
  6
CONTINUOUS
 62
1
 10
1.884528E+001
 20
3.2223251E+001
 40
1.56E-001
  0
CIRCLE
  5
f6
100
AcDbEntity
  8
V2L2
100
AcDbCircle
  6
CONTINUOUS
 62
1
 10
1.884576E+001
 20
4.0103248E+001
 40
1.56E-001
  0
CIRCLE
  5
f7
100
AcDbEntity
  8
V2L2
100
AcDbCircle
  6
CONTINUOUS
 62
1
 10
1.3846437E+001
 20
4.0603248E+001
 40
1.56E-001
  0
CIRCLE
  5
f8
100
AcDbEntity
  8
V2L2
100
AcDbCircle
  6
CONTINUOUS
 62
1
 10
8.8464373
 20
4.0103248E+001
 40
1.56E-001
  0
CIRCLE
  5
f9
100
AcDbEntity
  8
V2L2
100
AcDbCircle
  6
CONTINUOUS
 62
1
 10
8.8465063
 20
3.2223248E+001
 40
1.56E-001
  0
CIRCLE
  5
fa
100
AcDbEntity
  8
V2L2
100
AcDbCircle
  6
CONTINUOUS
 62
1
 10
8.8467953
 20
2.4343248E+001
 40
1.56E-001
  0
LINE
  5
fb
100
AcDbEntity
  8
V2L2
100
AcDbLine
  6
CONTINUOUS
 62
1
 10
2.034544E+001
 20
1.4593251E+001
 11
2.000144E+001
 21
1.4593251E+001
  0
LINE
  5
fc
100
AcDbEntity
  8
V2L2
100
AcDbLine
  6
CONTINUOUS
 62
1
 10
1.934544E+001
 20
1.4593251E+001
 11
1.834544E+001
 21
1.4593251E+001
  0
LINE
  5
fd
100
AcDbEntity
  8
V2L2
100
AcDbLine
  6
CONTINUOUS
 62
1
 10
1.884544E+001
 20
1.5093251E+001
 11
1.884544E+001
 21
1.4093251E+001
  0
LINE
  5
fe
100
AcDbEntity
  8
V2L2
100
AcDbLine
  6
CONTINUOUS
 62
1
 10
1.984544E+001
 20
1.4593251E+001
 11
1.949744E+001
 21
1.4593251E+001
  0
LINE
  5
ff
100
AcDbEntity
  8
V2L2
100
AcDbLine
  6
CONTINUOUS
 62
1
 10
1.884544E+001
 20
1.5593251E+001
 11
1.884544E+001
 21
1.5245252E+001
  0
LINE
  5
100
100
AcDbEntity
  8
V2L2
100
AcDbLine
  6
CONTINUOUS
 62
1
 10
1.784544E+001
 20
1.4593251E+001
 11
1.819344E+001
 21
1.4593251E+001
  0
LINE
  5
101
100
AcDbEntity
  8
V2L2
100
AcDbLine
  6
CONTINUOUS
 62
1
 10
1.884544E+001
 20
1.3593251E+001
 11
1.884544E+001
 21
1.3941252E+001
  0
LINE
  5
102
100
AcDbEntity
  8
V2L2
100
AcDbLine
  6
CONTINUOUS
 62
1
 10
9.3470163
 20
1.4593251E+001
 11
8.3470163
 21
1.4593251E+001
  0
LINE
  5
103
100
AcDbEntity
  8
V2L2
100
AcDbLine
  6
CONTINUOUS
 62
1
 10
8.8470163
 20
1.5093251E+001
 11
8.8470163
 21
1.4093251E+001
  0
LINE
  5
104
100
AcDbEntity
  8
V2L2
100
AcDbLine
  6
CONTINUOUS
 62
1
 10
9.8470163
 20
1.4593251E+001
 11
9.4990163
 21
1.4593251E+001
  0
LINE
  5
105
100
AcDbEntity
  8
V2L2
100
AcDbLine
  6
CONTINUOUS
 62
1
 10
8.8470163
 20
1.5593251E+001
 11
8.8470163
 21
1.5245251E+001
  0
LINE
  5
106
100
AcDbEntity
  8
V2L2
100
AcDbLine
  6
CONTINUOUS
 62
1
 10
7.8470163
 20
1.4593251E+001
 11
8.1950163
 21
1.4593251E+001
  0
LINE
  5
107
100
AcDbEntity
  8
V2L2
100
AcDbLine
  6
CONTINUOUS
 62
1
 10
8.8470163
 20
1.3593251E+001
 11
8.8470163
 21
1.3941251E+001
  0
LINE
  5
108
100
AcDbEntity
  8
V2L2
100
AcDbLine
  6
CONTINUOUS
 62
1
 10
9.3467953
 20
2.4343248E+001
 11
8.3467953
 21
2.4343248E+001
  0
LINE
  5
109
100
AcDbEntity
  8
V2L2
100
AcDbLine
  6
CONTINUOUS
 62
1
 10
8.8467953
 20
2.4843248E+001
 11
8.8467953
 21
2.3843248E+001
  0
LINE
  5
10a
100
AcDbEntity
  8
V2L2
100
AcDbLine
  6
CONTINUOUS
 62
1
 10
8.8467953
 20
2.5343248E+001
 11
8.8467953
 21
2.4995248E+001
  0
LINE
  5
10b
100
AcDbEntity
  8
V2L2
100
AcDbLine
  6
CONTINUOUS
 62
1
 10
7.8467953
 20
2.4343248E+001
 11
8.1947953
 21
2.4343248E+001
  0
LINE
  5
10c
100
AcDbEntity
  8
V2L2
100
AcDbLine
  6
CONTINUOUS
 62
1
 10
8.8467953
 20
2.3343248E+001
 11
8.8467953
 21
2.3691248E+001
  0
LINE
  5
10d
100
AcDbEntity
  8
V2L2
100
AcDbLine
  6
CONTINUOUS
 62
1
 10
1.9345281E+001
 20
2.4343251E+001
 11
1.8345281E+001
 21
2.4343251E+001
  0
LINE
  5
10e
100
AcDbEntity
  8
V2L2
100
AcDbLine
  6
CONTINUOUS
 62
1
 10
1.8845281E+001
 20
2.4843251E+001
 11
1.8845281E+001
 21
2.3843251E+001
  0
LINE
  5
10f
100
AcDbEntity
  8
V2L2
100
AcDbLine
  6
CONTINUOUS
 62
1
 10
1.9845281E+001
 20
2.4343251E+001
 11
1.9497281E+001
 21
2.4343251E+001
  0
LINE
  5
110
100
AcDbEntity
  8
V2L2
100
AcDbLine
  6
CONTINUOUS
 62
1
 10
1.8845281E+001
 20
2.5343251E+001
 11
1.8845281E+001
 21
2.4995251E+001
  0
LINE
  5
111
100
AcDbEntity
  8
V2L2
100
AcDbLine
  6
CONTINUOUS
 62
1
 10
1.8845281E+001
 20
2.3343251E+001
 11
1.8845281E+001
 21
2.3691251E+001
  0
LINE
  5
112
100
AcDbEntity
  8
V2L2
100
AcDbLine
  6
CONTINUOUS
 62
1
 10
1.934528E+001
 20
3.2223251E+001
 11
1.834528E+001
 21
3.2223251E+001
  0
LINE
  5
113
100
AcDbEntity
  8
V2L2
100
AcDbLine
  6
CONTINUOUS
 62
1
 10
1.884528E+001
 20
3.2723251E+001
 11
1.884528E+001
 21
3.1723251E+001
  0
LINE
  5
114
100
AcDbEntity
  8
V2L2
100
AcDbLine
  6
CONTINUOUS
 62
1
 10
1.984528E+001
 20
3.2223251E+001
 11
1.949728E+001
 21
3.2223251E+001
  0
LINE
  5
115
100
AcDbEntity
  8
V2L2
100
AcDbLine
  6
CONTINUOUS
 62
1
 10
1.884528E+001
 20
3.3223251E+001
 11
1.884528E+001
 21
3.2875251E+001
  0
LINE
  5
116
100
AcDbEntity
  8
V2L2
100
AcDbLine
  6
CONTINUOUS
 62
1
 10
1.784528E+001
 20
3.2223251E+001
 11
1.819328E+001
 21
3.2223251E+001
  0
LINE
  5
117
100
AcDbEntity
  8
V2L2
100
AcDbLine
  6
CONTINUOUS
 62
1
 10
1.884528E+001
 20
3.1223251E+001
 11
1.884528E+001
 21
3.1571251E+001
  0
LINE
  5
118
100
AcDbEntity
  8
V2L2
100
AcDbLine
  6
CONTINUOUS
 62
1
 10
1.934576E+001
 20
4.0103248E+001
 11
1.834576E+001
 21
4.0103248E+001
  0
LINE
  5
119
100
AcDbEntity
  8
V2L2
100
AcDbLine
  6
CONTINUOUS
 62
1
 10
1.884576E+001
 20
4.0603248E+001
 11
1.884576E+001
 21
3.9603248E+001
  0
LINE
  5
11a
100
AcDbEntity
  8
V2L2
100
AcDbLine
  6
CONTINUOUS
 62
1
 10
1.984576E+001
 20
4.0103248E+001
 11
1.949776E+001
 21
4.0103248E+001
  0
LINE
  5
11b
100
AcDbEntity
  8
V2L2
100
AcDbLine
  6
CONTINUOUS
 62
1
 10
1.884576E+001
 20
4.1103248E+001
 11
1.884576E+001
 21
4.0755248E+001
  0
LINE
  5
11c
100
AcDbEntity
  8
V2L2
100
AcDbLine
  6
CONTINUOUS
 62
1
 10
1.784576E+001
 20
4.0103248E+001
 11
1.819376E+001
 21
4.0103248E+001
  0
LINE
  5
11d
100
AcDbEntity
  8
V2L2
100
AcDbLine
  6
CONTINUOUS
 62
1
 10
1.884576E+001
 20
3.9103248E+001
 11
1.884576E+001
 21
3.9451248E+001
  0
LINE
  5
11e
100
AcDbEntity
  8
V2L2
100
AcDbLine
  6
CONTINUOUS
 62
1
 10
9.3465063
 20
3.2223248E+001
 11
8.3465063
 21
3.2223248E+001
  0
LINE
  5
11f
100
AcDbEntity
  8
V2L2
100
AcDbLine
  6
CONTINUOUS
 62
1
 10
8.8465063
 20
3.2723248E+001
 11
8.8465063
 21
3.1723248E+001
  0
LINE
  5
120
100
AcDbEntity
  8
V2L2
100
AcDbLine
  6
CONTINUOUS
 62
1
 10
9.8465063
 20
3.2223248E+001
 11
9.4985063
 21
3.2223248E+001
  0
LINE
  5
121
100
AcDbEntity
  8
V2L2
100
AcDbLine
  6
CONTINUOUS
 62
1
 10
8.8465063
 20
3.3223248E+001
 11
8.8465063
 21
3.2875248E+001
  0
LINE
  5
122
100
AcDbEntity
  8
V2L2
100
AcDbLine
  6
CONTINUOUS
 62
1
 10
7.8465063
 20
3.2223248E+001
 11
8.1945063
 21
3.2223248E+001
  0
LINE
  5
123
100
AcDbEntity
  8
V2L2
100
AcDbLine
  6
CONTINUOUS
 62
1
 10
8.8465063
 20
3.1223248E+001
 11
8.8465063
 21
3.1571248E+001
  0
LINE
  5
124
100
AcDbEntity
  8
V2L2
100
AcDbLine
  6
CONTINUOUS
 62
1
 10
9.3464373
 20
4.0103248E+001
 11
8.3464373
 21
4.0103248E+001
  0
LINE
  5
125
100
AcDbEntity
  8
V2L2
100
AcDbLine
  6
CONTINUOUS
 62
1
 10
8.8464373
 20
4.0603248E+001
 11
8.8464373
 21
3.9603248E+001
  0
LINE
  5
126
100
AcDbEntity
  8
V2L2
100
AcDbLine
  6
CONTINUOUS
 62
1
 10
9.8464373
 20
4.0103248E+001
 11
9.4984373
 21
4.0103248E+001
  0
LINE
  5
127
100
AcDbEntity
  8
V2L2
100
AcDbLine
  6
CONTINUOUS
 62
1
 10
8.8464373
 20
4.1103248E+001
 11
8.8464373
 21
4.0755248E+001
  0
LINE
  5
128
100
AcDbEntity
  8
V2L2
100
AcDbLine
  6
CONTINUOUS
 62
1
 10
7.8464373
 20
4.0103248E+001
 11
8.1944373
 21
4.0103248E+001
  0
LINE
  5
129
100
AcDbEntity
  8
V2L2
100
AcDbLine
  6
CONTINUOUS
 62
1
 10
8.8464373
 20
3.9103248E+001
 11
8.8464373
 21
3.9451248E+001
  0
LINE
  5
12a
100
AcDbEntity
  8
V2L2
100
AcDbLine
  6
CONTINUOUS
 62
1
 10
1.4346437E+001
 20
4.0603248E+001
 11
1.3346437E+001
 21
4.0603248E+001
  0
LINE
  5
12b
100
AcDbEntity
  8
V2L2
100
AcDbLine
  6
CONTINUOUS
 62
1
 10
1.3846437E+001
 20
4.1103248E+001
 11
1.3846437E+001
 21
4.0103248E+001
  0
LINE
  5
12c
100
AcDbEntity
  8
V2L2
100
AcDbLine
  6
CONTINUOUS
 62
1
 10
1.4846437E+001
 20
4.0603248E+001
 11
1.4498437E+001
 21
4.0603248E+001
  0
LINE
  5
12d
100
AcDbEntity
  8
V2L2
100
AcDbLine
  6
CONTINUOUS
 62
1
 10
1.3846437E+001
 20
4.1603248E+001
 11
1.3846437E+001
 21
4.1255248E+001
  0
LINE
  5
12e
100
AcDbEntity
  8
V2L2
100
AcDbLine
  6
CONTINUOUS
 62
1
 10
1.2846437E+001
 20
4.0603248E+001
 11
1.3194437E+001
 21
4.0603248E+001
  0
LINE
  5
12f
100
AcDbEntity
  8
V2L2
100
AcDbLine
  6
CONTINUOUS
 62
1
 10
1.3846437E+001
 20
3.9603248E+001
 11
1.3846437E+001
 21
3.9951248E+001
  0
INSERT
  5
130
100
AcDbEntity
100
AcDbBlockReference
  2
*TX26
  8
V2L1
 10
1.3342183
 20
5.0329251E+001
  0
TEXT
  5
131
100
AcDbEntity
  8
V2L1
100
AcDbText
  6
CONTINUOUS
 62
1
 10
1.0676218E+001
 20
3.5268251E+001
 40
1.0
  1
CUTOUT
100
AcDbText
  0
TEXT
  5
132
100
AcDbEntity
  8
V2L1
100
AcDbText
  6
CONTINUOUS
 62
1
 10
1.0771218E+001
 20
1.9540251E+001
 40
1.0
  1
CUTOUT
100
AcDbText
  0
TEXT
  5
133
100
AcDbEntity
  8
V2L1
100
AcDbText
  6
CONTINUOUS
 62
1
 10
3.1452183
 20
7.3392514
 40
1.0
  1
EXTERNAL MOUNTING PLAN
100
AcDbText
  0
ENDSEC
  0
SECTION
  2
OBJECTS
  0
DICTIONARY
  5
134
100
AcDbDictionary
  3
ACAD_GROUP
350
135
  3
ACAD_MLINESTYLE
350
136
  0
DICTIONARY
  5
135
102
{ACAD_REACTORS
330
134
102
}
100
AcDbDictionary
  0
DICTIONARY
  5
136
102
{ACAD_REACTORS
330
134
102
}
100
AcDbDictionary
  3
STANDARD
350
137
  0
MLINESTYLE
  5
137
102
{ACAD_REACTORS
330
136
102
}
100
AcDbMlineStyle
  2
STANDARD
 70
0
  3

 62
256
 51
9.0E+001
 52
9.0E+001
 71
2
 49
5.0E-001
 62
256
  6
BYLAYER
 49
-5.0E-001
 62
256
  6
BYLAYER
  0
ENDSEC
  0
EOF
