  0
SECTION
  2
HEADER
  9
$ACADVER
  1
AC1014
999
I-DEAS 13 NX
  9
$EXTMIN
 10
0.0
 20
0.0
  9
$EXTMAX
 10
3.6E+001
 20
3.6E+001
  9
$TEXTSIZE
 40
1.25E-001
  9
$LTSCALE
 40
1.0
  9
$CLAYER
  8
V1L1
  9
$CECOLOR
 62
1
  9
$DIMASZ
 40
1.25E-001
  9
$DIMEXO
 40
6.25E-002
  9
$DIMDLI
 40
2.5E-001
  9
$DIMEXE
 40
1.25E-001
  9
$DIMTP
 40
5.0E-003
  9
$DIMTM
 40
-5.0E-003
  9
$DIMTXT
 40
1.25E-001
  9
$DIMLIM
 70
0
  9
$DIMTIH
 70
1
  9
$DIMTOH
 70
1
  9
$DIMSE1
 70
0
  9
$DIMSE2
 70
0
  9
$DIMTAD
 70
0
  9
$DIMASO
 70
1
  9
$DIMALT
 70
0
  9
$DIMALTD
 70
0
  9
$DIMTOFL
 70
1
  9
$DIMTIX
 70
0
  9
$DIMSAH
 70
0
  9
$DIMSTYLE
  2
DSTYLE1
  9
$DIMTFAC
 40
1.0
  9
$DIMGAP
 40
6.25E-002
  9
$LUNITS
 70
2
  9
$LUPREC
 70
3
  9
$FILLETRAD
 40
2.5E-001
  9
$AUNITS
 70
0
  9
$AUPREC
 70
1
  9
$CHAMFERA
 40
2.5E-001
  9
$CHAMFERB
 40
2.5E-001
  9
$ANGBASE
 50
0.0
  9
$ANGDIR
 70
0
  9
$PEXTMIN
 10
0.0
 20
0.0
 30
0.0
  9
$PEXTMAX
 10
3.6E+001
 20
3.6E+001
 30
0.0
  9
$PLIMMIN
 10
0.0
 20
0.0
  9
$PLIMMAX
 10
3.6E+001
 20
3.6E+001
  9
$PDMODE
 70
2
  9
$PDSIZE
 40
-1.0E-002
  9
$SPLINETYPE
 70
6
  9
$TILEMODE
 70
1
  9
$HANDLING
 70
1
  9
$HANDSEED
  5
f4240
  0
ENDSEC
  0
SECTION
  2
TABLES
  0
TABLE
  2
VPORT
  5
64
100
AcDbSymbolTable
 70
2
  0
VPORT
  5
65
100
AcDbSymbolTableRecord
100
AcDbViewportTableRecord
  2
*Active
 70
0
 10
0.0
 20
0.0
 11
3.6E+001
 21
3.6E+001
 12
1.8E+001
 22
1.8E+001
 13
0.0
 23
0.0
 14
1.0
 24
1.0
 15
0.0
 25
0.0
 16
0.0
 26
0.0
 36
1.0
 17
0.0
 27
0.0
 37
0.0
 40
3.6E+001
 41
1.0
 42
5.0E+001
 43
0.0
 44
0.0
 50
0.0
 51
0.0
 71
0
 72
1000
 73
1
 74
3
 75
0
 76
0
 77
0
 78
0
  0
ENDTAB
  0
TABLE
  2
LTYPE
  5
66
100
AcDbSymbolTable
 70
7
  0
LTYPE
  5
67
100
AcDbSymbolTableRecord
100
AcDbLinetypeTableRecord
  2
BYBLOCK
 70
0
  3

 72
65
 73
0
 40
0.0
  0
LTYPE
  5
68
100
AcDbSymbolTableRecord
100
AcDbLinetypeTableRecord
  2
BYLAYER
 70
0
  3

 72
65
 73
0
 40
0.0
  0
LTYPE
  5
69
100
AcDbSymbolTableRecord
100
AcDbLinetypeTableRecord
  2
CONTINUOUS
 70
0
  3

 72
65
 73
0
 40
0.0
  0
LTYPE
  5
6a
100
AcDbSymbolTableRecord
100
AcDbLinetypeTableRecord
  2
HIDDENNEW0
  3
_ 
 70
64
 72
65
 73
3
 40
1.875E-001
 49
6.25E-002
 74
0
 49
-6.25E-002
 74
0
 49
6.25E-002
 74
0
  0
LTYPE
  5
6b
100
AcDbSymbolTableRecord
100
AcDbLinetypeTableRecord
  2
HIDDENNEW1
  3
_ 
 70
64
 72
65
 73
3
 40
1.875E-001
 49
6.25E-002
 74
0
 49
-6.25E-002
 74
0
 49
6.25E-002
 74
0
  0
LTYPE
  5
6c
100
AcDbSymbolTableRecord
100
AcDbLinetypeTableRecord
  2
HIDDEN
  3
_ 
 70
64
 72
65
 73
3
 40
1.875E-001
 49
6.25E-002
 74
0
 49
-6.25E-002
 74
0
 49
6.25E-002
 74
0
  0
LTYPE
  5
6d
100
AcDbSymbolTableRecord
100
AcDbLinetypeTableRecord
  2
CENTERLINE
  3
_ 
 70
64
 72
65
 73
5
 40
1.25
 49
5.0E-001
 74
0
 49
-6.25E-002
 74
0
 49
1.25E-001
 74
0
 49
-6.25E-002
 74
0
 49
5.0E-001
 74
0
  0
LTYPE
  5
6e
100
AcDbSymbolTableRecord
100
AcDbLinetypeTableRecord
  2
PHANTOM
  3
_ 
 70
64
 72
65
 73
7
 40
1.1875
 49
3.75E-001
 74
0
 49
-6.25E-002
 74
0
 49
1.25E-001
 74
0
 49
-6.25E-002
 74
0
 49
1.25E-001
 74
0
 49
-6.25E-002
 74
0
 49
3.75E-001
 74
0
  0
LTYPE
  5
6f
100
AcDbSymbolTableRecord
100
AcDbLinetypeTableRecord
  2
SHORT_DASH
  3
_ 
 70
64
 72
65
 73
3
 40
1.25E-001
 49
3.125E-002
 74
0
 49
-6.25E-002
 74
0
 49
3.125E-002
 74
0
  0
LTYPE
  5
70
100
AcDbSymbolTableRecord
100
AcDbLinetypeTableRecord
  2
LONG_DASH
  3
_ 
 70
64
 72
65
 73
3
 40
3.75E-001
 49
9.375E-002
 74
0
 49
-1.875E-001
 74
0
 49
9.375E-002
 74
0
  0
ENDTAB
  0
TABLE
  2
LAYER
  5
71
100
AcDbSymbolTable
 70
258
  0
LAYER
  5
72
100
AcDbSymbolTableRecord
100
AcDbLayerTableRecord
  2
0
 70
0
 62
7
  6
CONTINUOUS
  0
LAYER
  5
73
100
AcDbSymbolTableRecord
100
AcDbLayerTableRecord
  2
V1L0
 70
0
 62
7
  6
CONTINUOUS
  0
LAYER
  5
74
100
AcDbSymbolTableRecord
100
AcDbLayerTableRecord
  2
V2L0
 70
0
 62
7
  6
CONTINUOUS
  0
LAYER
  5
75
100
AcDbSymbolTableRecord
100
AcDbLayerTableRecord
  2
Drafting_Hidden_Entities
 70
1
 62
7
  6
CONTINUOUS
  0
ENDTAB
  0
TABLE
  2
STYLE
  5
76
100
AcDbSymbolTable
 70
1
  0
STYLE
  5
77
100
AcDbSymbolTableRecord
100
AcDbTextStyleTableRecord
  2
STANDARD
 70
64
 40
0.0
 41
1.0
 50
0.0
 71
0
 42
1.0
  3
monotxt.shx
  4

  0
ENDTAB
  0
TABLE
  2
VIEW
  5
78
100
AcDbSymbolTable
 70
0
  0
ENDTAB
  0
TABLE
  2
UCS
  5
79
100
AcDbSymbolTable
 70
0
  0
ENDTAB
  0
TABLE
  2
APPID
  5
7a
100
AcDbSymbolTable
 70
1
  0
APPID
  5
7b
100
AcDbSymbolTableRecord
100
AcDbRegAppTableRecord
  2
ACAD
 70
1
  0
ENDTAB
  0
TABLE
  2
DIMSTYLE
  5
7c
100
AcDbSymbolTable
 70
0
  0
ENDTAB
  0
TABLE
  2
BLOCK_RECORD
  5
7d
100
AcDbSymbolTable
 70
0
  0
BLOCK_RECORD
  5
7e
100
AcDbSymbolTableRecord
100
AcDbBlockTableRecord
  2
*MODEL_SPACE
  0
BLOCK_RECORD
  5
7f
100
AcDbSymbolTableRecord
100
AcDbBlockTableRecord
  2
*PAPER_SPACE
  0
BLOCK_RECORD
  5
80
100
AcDbSymbolTableRecord
100
AcDbBlockTableRecord
  2
_AH1
  0
BLOCK_RECORD
  5
81
100
AcDbSymbolTableRecord
100
AcDbBlockTableRecord
  2
_AH2
  0
BLOCK_RECORD
  5
82
100
AcDbSymbolTableRecord
100
AcDbBlockTableRecord
  2
_AH12
  3
_AH
  0
BLOCK_RECORD
  5
83
100
AcDbSymbolTableRecord
100
AcDbBlockTableRecord
  2
_AH13
  3
_AH
  0
BLOCK_RECORD
  5
84
100
AcDbSymbolTableRecord
100
AcDbBlockTableRecord
  2
_AH14
  3
_AH
  0
BLOCK_RECORD
  5
85
100
AcDbSymbolTableRecord
100
AcDbBlockTableRecord
  2
_AH15
  3
_AH
  0
BLOCK_RECORD
  5
86
100
AcDbSymbolTableRecord
100
AcDbBlockTableRecord
  2
_AH16
  3
_AH
  0
BLOCK_RECORD
  5
87
100
AcDbSymbolTableRecord
100
AcDbBlockTableRecord
  2
_AH17
  3
_AH
  0
BLOCK_RECORD
  5
88
100
AcDbSymbolTableRecord
100
AcDbBlockTableRecord
  2
_AH18
  3
_AH
  0
BLOCK_RECORD
  5
89
100
AcDbSymbolTableRecord
100
AcDbBlockTableRecord
  2
_AH19
  3
_AH
  0
BLOCK_RECORD
  5
8a
100
AcDbSymbolTableRecord
100
AcDbBlockTableRecord
  2
_AH20
  3
_AH
  0
BLOCK_RECORD
  5
8b
100
AcDbSymbolTableRecord
100
AcDbBlockTableRecord
  2
_AH21
  3
_AH
  0
BLOCK_RECORD
  5
8c
100
AcDbSymbolTableRecord
100
AcDbBlockTableRecord
  2
POINTSYMBOL
  0
BLOCK_RECORD
  5
8d
100
AcDbSymbolTableRecord
100
AcDbBlockTableRecord
  2
SW_CENTERMARKSYMBOL_14
  0
BLOCK_RECORD
  5
8e
100
AcDbSymbolTableRecord
100
AcDbBlockTableRecord
  2
SW_CENTERMARKSYMBOL_15
  0
BLOCK_RECORD
  5
8f
100
AcDbSymbolTableRecord
100
AcDbBlockTableRecord
  2
SW_CENTERMARKSYMBOL_16
  0
BLOCK_RECORD
  5
90
100
AcDbSymbolTableRecord
100
AcDbBlockTableRecord
  2
SW_CENTERMARKSYMBOL_17
  0
BLOCK_RECORD
  5
91
100
AcDbSymbolTableRecord
100
AcDbBlockTableRecord
  2
SW_CENTERMARKSYMBOL_18
  0
BLOCK_RECORD
  5
92
100
AcDbSymbolTableRecord
100
AcDbBlockTableRecord
  2
SW_CENTERMARKSYMBOL_19
  0
BLOCK_RECORD
  5
93
100
AcDbSymbolTableRecord
100
AcDbBlockTableRecord
  2
SW_CENTERMARKSYMBOL_20
  0
BLOCK_RECORD
  5
94
100
AcDbSymbolTableRecord
100
AcDbBlockTableRecord
  2
SW_CENTERMARKSYMBOL_21
  0
BLOCK_RECORD
  5
95
100
AcDbSymbolTableRecord
100
AcDbBlockTableRecord
  2
SW_CENTERMARKSYMBOL_22
  0
BLOCK_RECORD
  5
96
100
AcDbSymbolTableRecord
100
AcDbBlockTableRecord
  2
SW_CENTERMARKSYMBOL_23
  0
BLOCK_RECORD
  5
97
100
AcDbSymbolTableRecord
100
AcDbBlockTableRecord
  2
SW_CENTERMARKSYMBOL_24
  0
BLOCK_RECORD
  5
98
100
AcDbSymbolTableRecord
100
AcDbBlockTableRecord
  2
SW_CENTERMARKSYMBOL_25
  0
BLOCK_RECORD
  5
99
100
AcDbSymbolTableRecord
100
AcDbBlockTableRecord
  2
SW_CENTERMARKSYMBOL_26
  0
BLOCK_RECORD
  5
9a
100
AcDbSymbolTableRecord
100
AcDbBlockTableRecord
  2
SW_CENTERMARKSYMBOL_27
  0
BLOCK_RECORD
  5
9b
100
AcDbSymbolTableRecord
100
AcDbBlockTableRecord
  2
*TX61
  3
*TX
  0
BLOCK_RECORD
  5
9c
100
AcDbSymbolTableRecord
100
AcDbBlockTableRecord
  2
*VIEW1
  0
ENDTAB
  0
ENDSEC
  0
SECTION
  2
BLOCKS
  0
BLOCK
  5
9d
100
AcDbEntity
100
AcDbBlockBegin
  2
*MODEL_SPACE
 70
0
 10
0.0
 20
0.0
 30
0.0
  3
*MODEL_SPACE
  1

  0
ENDBLK
  5
9e
100
AcDbEntity
100
AcDbBlockEnd
  0
BLOCK
  5
9f
100
AcDbEntity
100
AcDbBlockBegin
  2
*PAPER_SPACE
 70
0
 10
0.0
 20
0.0
 30
0.0
  3
*PAPER_SPACE
  1

  0
ENDBLK
  5
a0
100
AcDbEntity
100
AcDbBlockEnd
  0
BLOCK
  5
a1
100
AcDbEntity
100
AcDbBlockBegin
  2
*VIEW1
  3
*VIEW
 10
0.0
 20
0.0
 70
65
  0
TEXT
  5
a2
100
AcDbEntity
  8
V0L1
100
AcDbText
  6
CONTINUOUS
 62
211
 10
0.0
 20
0.0
 40
1.0
  1
BV1XL0.0YL0.0XH3.6E+001YH3.6E+001
 41
1.25E-001
 50
1.0
 51
1.0
100
AcDbText
  0
TEXT
  5
a3
100
AcDbEntity
  8
V0L1
100
AcDbText
  6
CONTINUOUS
 62
211
 10
0.0
 20
0.0
 40
1.0
  1
DV1X0.0Y0.0S1.0N1-MAIN
 41
1.25E-001
 50
1.0
 51
1.0
100
AcDbText
  0
ENDBLK
  5
a4
100
AcDbEntity
100
AcDbBlockEnd
  0
BLOCK
  5
a5
100
AcDbEntity
100
AcDbBlockBegin
  2
_AH12
  3
_AH
 10
0.0
 20
0.0
 70
64
  0
LINE
  5
a6
100
AcDbEntity
  8
V0L1
100
AcDbLine
  6
CONTINUOUS
 62
0
 10
0.0
 20
0.0
 11
1.0
 21
0.0
  0
LINE
  5
a7
100
AcDbEntity
  8
V0L1
100
AcDbLine
  6
CONTINUOUS
 62
0
 10
0.0
 20
0.0
 11
-1.0
 21
0.0
  0
ENDBLK
  5
a8
100
AcDbEntity
100
AcDbBlockEnd
  0
BLOCK
  5
a9
100
AcDbEntity
100
AcDbBlockBegin
  2
_AH13
  3
_AH
 10
0.0
 20
0.0
 70
64
  0
SOLID
  5
aa
100
AcDbEntity
  8
V0L1
100
AcDbTrace
  6
CONTINUOUS
 62
0
 10
0.0
 20
0.0
 11
1.0
 21
-1.66667E-001
 12
1.0
 22
1.66667E-001
 13
0.0
 23
0.0
  0
ENDBLK
  5
ab
100
AcDbEntity
100
AcDbBlockEnd
  0
BLOCK
  5
ac
100
AcDbEntity
100
AcDbBlockBegin
  2
_AH14
  3
_AH
 10
0.0
 20
0.0
 70
64
  0
ENDBLK
  5
ad
100
AcDbEntity
100
AcDbBlockEnd
  0
BLOCK
  5
ae
100
AcDbEntity
100
AcDbBlockBegin
  2
_AH15
  3
_AH
 10
0.0
 20
0.0
 70
64
  0
CIRCLE
  5
af
100
AcDbEntity
  8
V0L1
100
AcDbCircle
  6
CONTINUOUS
 62
0
 10
0.0
 20
0.0
 40
1.66667E-001
  0
LINE
  5
b0
100
AcDbEntity
  8
V0L1
100
AcDbLine
  6
CONTINUOUS
 62
0
 10
0.0
 20
0.0
 11
-1.0
 21
0.0
  0
ENDBLK
  5
b1
100
AcDbEntity
100
AcDbBlockEnd
  0
BLOCK
  5
b2
100
AcDbEntity
100
AcDbBlockBegin
  2
_AH16
  3
_AH
 10
0.0
 20
0.0
 70
64
  0
POLYLINE
  5
b3
100
AcDbEntity
  8
V0L1
100
AcDb2dPolyline
  6
CONTINUOUS
 62
0
 66
1
 40
9.375E-002
 41
9.375E-002
 70
0
  0
VERTEX
  5
b4
100
AcDbEntity
  8
V0L1
100
AcDbVertex
100
AcDb2dVertex
 42
1.0
 10
8.3335E-002
 20
0.0
 70
0
  0
VERTEX
  5
b5
100
AcDbEntity
  8
V0L1
100
AcDbVertex
100
AcDb2dVertex
 42
1.0
 10
-8.3335E-002
 20
0.0
 70
0
  0
VERTEX
  5
b6
100
AcDbEntity
  8
V0L1
100
AcDbVertex
100
AcDb2dVertex
 42
0.0
 10
8.3335E-002
 20
0.0
 70
0
  0
SEQEND
  5
b7
100
AcDbEntity
  0
LINE
  5
b8
100
AcDbEntity
  8
V0L1
100
AcDbLine
  6
CONTINUOUS
 62
0
 10
0.0
 20
0.0
 11
-1.0
 21
0.0
  0
ENDBLK
  5
b9
100
AcDbEntity
100
AcDbBlockEnd
  0
BLOCK
  5
ba
100
AcDbEntity
100
AcDbBlockBegin
  2
_AH17
  3
_AH
 10
0.0
 20
0.0
 70
64
  0
LINE
  5
bb
100
AcDbEntity
  8
V0L1
100
AcDbLine
  6
CONTINUOUS
 62
0
 10
-1.66667E-001
 20
-1.66667E-001
 11
1.66667E-001
 21
-1.66667E-001
  0
LINE
  5
bc
100
AcDbEntity
  8
V0L1
100
AcDbLine
  6
CONTINUOUS
 62
0
 10
1.66667E-001
 20
-1.66667E-001
 11
1.66667E-001
 21
1.66667E-001
  0
LINE
  5
bd
100
AcDbEntity
  8
V0L1
100
AcDbLine
  6
CONTINUOUS
 62
0
 10
1.66667E-001
 20
1.66667E-001
 11
-1.66667E-001
 21
1.66667E-001
  0
LINE
  5
be
100
AcDbEntity
  8
V0L1
100
AcDbLine
  6
CONTINUOUS
 62
0
 10
-1.66667E-001
 20
1.66667E-001
 11
-1.66667E-001
 21
-1.66667E-001
  0
LINE
  5
bf
100
AcDbEntity
  8
V0L1
100
AcDbLine
  6
CONTINUOUS
 62
0
 10
0.0
 20
0.0
 11
-1.0
 21
0.0
  0
ENDBLK
  5
c0
100
AcDbEntity
100
AcDbBlockEnd
  0
BLOCK
  5
c1
100
AcDbEntity
100
AcDbBlockBegin
  2
_AH18
  3
_AH
 10
0.0
 20
0.0
 70
64
  0
SOLID
  5
c2
100
AcDbEntity
  8
V0L1
100
AcDbTrace
  6
CONTINUOUS
 62
0
 10
-1.66667E-001
 20
-1.66667E-001
 11
1.66667E-001
 21
-1.66667E-001
 12
-1.66667E-001
 22
1.66667E-001
 13
1.66667E-001
 23
1.66667E-001
  0
LINE
  5
c3
100
AcDbEntity
  8
V0L1
100
AcDbLine
  6
CONTINUOUS
 62
0
 10
0.0
 20
0.0
 11
-1.0
 21
0.0
  0
ENDBLK
  5
c4
100
AcDbEntity
100
AcDbBlockEnd
  0
BLOCK
  5
c5
100
AcDbEntity
100
AcDbBlockBegin
  2
_AH19
  3
_AH
 10
0.0
 20
0.0
 70
64
  0
LINE
  5
c6
100
AcDbEntity
  8
V0L1
100
AcDbLine
  6
CONTINUOUS
 62
0
 10
-5.0E-001
 20
-5.0E-001
 11
5.0E-001
 21
5.0E-001
  0
LINE
  5
c7
100
AcDbEntity
  8
V0L1
100
AcDbLine
  6
CONTINUOUS
 62
0
 10
0.0
 20
0.0
 11
-1.0
 21
0.0
  0
ENDBLK
  5
c8
100
AcDbEntity
100
AcDbBlockEnd
  0
BLOCK
  5
c9
100
AcDbEntity
100
AcDbBlockBegin
  2
_AH20
  3
_AH
 10
0.0
 20
0.0
 70
64
  0
POLYLINE
  5
ca
100
AcDbEntity
  8
V0L1
100
AcDb2dPolyline
  6
CONTINUOUS
 62
0
 66
1
 40
2.0E-002
 41
2.0E-002
 70
0
  0
VERTEX
  5
cb
100
AcDbEntity
  8
V0L1
100
AcDbVertex
100
AcDb2dVertex
 42
4.1421356E-001
 10
-1.66667E-001
 20
-1.66667E-001
 70
0
  0
VERTEX
  5
cc
100
AcDbEntity
  8
V0L1
100
AcDbVertex
100
AcDb2dVertex
 42
0.0
 10
0.0
 20
0.0
 70
0
  0
SEQEND
  5
cd
100
AcDbEntity
  0
POLYLINE
  5
ce
100
AcDbEntity
  8
V0L1
100
AcDb2dPolyline
  6
CONTINUOUS
 62
0
 66
1
 40
2.0E-002
 41
2.0E-002
 70
0
  0
VERTEX
  5
cf
100
AcDbEntity
  8
V0L1
100
AcDbVertex
100
AcDb2dVertex
 42
4.1421356E-001
 10
1.66667E-001
 20
1.66667E-001
 70
0
  0
VERTEX
  5
d0
100
AcDbEntity
  8
V0L1
100
AcDbVertex
100
AcDb2dVertex
 42
0.0
 10
0.0
 20
0.0
 70
0
  0
SEQEND
  5
d1
100
AcDbEntity
  0
LINE
  5
d2
100
AcDbEntity
  8
V0L1
100
AcDbLine
  6
CONTINUOUS
 62
0
 10
0.0
 20
0.0
 11
-1.0
 21
0.0
  0
ENDBLK
  5
d3
100
AcDbEntity
100
AcDbBlockEnd
  0
BLOCK
  5
d4
100
AcDbEntity
100
AcDbBlockBegin
  2
_AH21
  3
_AH
 10
0.0
 20
0.0
 70
64
  0
LINE
  5
d5
100
AcDbEntity
  8
V0L1
100
AcDbLine
  6
CONTINUOUS
 62
0
 10
0.0
 20
0.0
 11
-1.0
 21
-1.66667E-001
  0
LINE
  5
d6
100
AcDbEntity
  8
V0L1
100
AcDbLine
  6
CONTINUOUS
 62
0
 10
-1.0
 20
-1.66667E-001
 11
-1.0
 21
1.66667E-001
  0
LINE
  5
d7
100
AcDbEntity
  8
V0L1
100
AcDbLine
  6
CONTINUOUS
 62
0
 10
-1.0
 20
1.66667E-001
 11
0.0
 21
0.0
  0
ENDBLK
  5
d8
100
AcDbEntity
100
AcDbBlockEnd
  0
BLOCK
  5
d9
100
AcDbEntity
100
AcDbBlockBegin
  2
POINTSYMBOL
 10
0.0
 20
0.0
 70
0
  0
LINE
  5
da
100
AcDbEntity
  8
V0L1
100
AcDbLine
  6
CONTINUOUS
 62
1
 10
0.0
 20
-5.0E-001
 11
0.0
 21
5.0E-001
  0
LINE
  5
db
100
AcDbEntity
  8
V0L1
100
AcDbLine
  6
CONTINUOUS
 62
1
 10
-5.0E-001
 20
0.0
 11
5.0E-001
 21
0.0
  0
ENDBLK
  5
dc
100
AcDbEntity
100
AcDbBlockEnd
  0
BLOCK
  5
dd
100
AcDbEntity
100
AcDbBlockBegin
  2
SW_CENTERMARKSYMBOL_14
 10
0.0
 20
0.0
 70
0
  0
LINE
  5
de
100
AcDbEntity
  8
V0L1
100
AcDbLine
  6
CONTINUOUS
 62
0
 10
0.0
 20
0.0
 11
0.0
 21
2.5E-002
  0
LINE
  5
df
100
AcDbEntity
  8
V0L1
100
AcDbLine
  6
CONTINUOUS
 62
0
 10
0.0
 20
0.0
 11
-2.5E-002
 21
0.0
  0
LINE
  5
e0
100
AcDbEntity
  8
V0L1
100
AcDbLine
  6
CONTINUOUS
 62
0
 10
0.0
 20
0.0
 11
0.0
 21
-2.5E-002
  0
LINE
  5
e1
100
AcDbEntity
  8
V0L1
100
AcDbLine
  6
CONTINUOUS
 62
0
 10
0.0
 20
0.0
 11
2.5E-002
 21
0.0
  0
LINE
  5
e2
100
AcDbEntity
  8
V0L1
100
AcDbLine
  6
CONTINUOUS
 62
0
 10
0.0
 20
2.5E-002
 11
0.0
 21
4.4875E-002
  0
LINE
  5
e3
100
AcDbEntity
  8
V0L1
100
AcDbLine
  6
CONTINUOUS
 62
0
 10
-2.5E-002
 20
0.0
 11
-4.4875E-002
 21
0.0
  0
LINE
  5
e4
100
AcDbEntity
  8
V0L1
100
AcDbLine
  6
CONTINUOUS
 62
0
 10
0.0
 20
-2.5E-002
 11
0.0
 21
-4.4875E-002
  0
LINE
  5
e5
100
AcDbEntity
  8
V0L1
100
AcDbLine
  6
CONTINUOUS
 62
0
 10
2.5E-002
 20
0.0
 11
4.4875E-002
 21
0.0
  0
ENDBLK
  5
e6
100
AcDbEntity
100
AcDbBlockEnd
  0
BLOCK
  5
e7
100
AcDbEntity
100
AcDbBlockBegin
  2
SW_CENTERMARKSYMBOL_15
 10
0.0
 20
0.0
 70
0
  0
LINE
  5
e8
100
AcDbEntity
  8
V0L1
100
AcDbLine
  6
CONTINUOUS
 62
0
 10
0.0
 20
0.0
 11
0.0
 21
2.5E-002
  0
LINE
  5
e9
100
AcDbEntity
  8
V0L1
100
AcDbLine
  6
CONTINUOUS
 62
0
 10
0.0
 20
0.0
 11
-2.5E-002
 21
0.0
  0
LINE
  5
ea
100
AcDbEntity
  8
V0L1
100
AcDbLine
  6
CONTINUOUS
 62
0
 10
0.0
 20
0.0
 11
0.0
 21
-2.5E-002
  0
LINE
  5
eb
100
AcDbEntity
  8
V0L1
100
AcDbLine
  6
CONTINUOUS
 62
0
 10
0.0
 20
0.0
 11
2.5E-002
 21
0.0
  0
LINE
  5
ec
100
AcDbEntity
  8
V0L1
100
AcDbLine
  6
CONTINUOUS
 62
0
 10
0.0
 20
2.5E-002
 11
0.0
 21
4.4875E-002
  0
LINE
  5
ed
100
AcDbEntity
  8
V0L1
100
AcDbLine
  6
CONTINUOUS
 62
0
 10
-2.5E-002
 20
0.0
 11
-4.4875E-002
 21
0.0
  0
LINE
  5
ee
100
AcDbEntity
  8
V0L1
100
AcDbLine
  6
CONTINUOUS
 62
0
 10
0.0
 20
-2.5E-002
 11
0.0
 21
-4.4875E-002
  0
LINE
  5
ef
100
AcDbEntity
  8
V0L1
100
AcDbLine
  6
CONTINUOUS
 62
0
 10
2.5E-002
 20
0.0
 11
4.4875E-002
 21
0.0
  0
ENDBLK
  5
f0
100
AcDbEntity
100
AcDbBlockEnd
  0
BLOCK
  5
f1
100
AcDbEntity
100
AcDbBlockBegin
  2
SW_CENTERMARKSYMBOL_16
 10
0.0
 20
0.0
 70
0
  0
LINE
  5
f2
100
AcDbEntity
  8
V0L1
100
AcDbLine
  6
CONTINUOUS
 62
0
 10
0.0
 20
0.0
 11
0.0
 21
2.5E-002
  0
LINE
  5
f3
100
AcDbEntity
  8
V0L1
100
AcDbLine
  6
CONTINUOUS
 62
0
 10
0.0
 20
0.0
 11
-2.5E-002
 21
0.0
  0
LINE
  5
f4
100
AcDbEntity
  8
V0L1
100
AcDbLine
  6
CONTINUOUS
 62
0
 10
0.0
 20
0.0
 11
0.0
 21
-2.5E-002
  0
LINE
  5
f5
100
AcDbEntity
  8
V0L1
100
AcDbLine
  6
CONTINUOUS
 62
0
 10
0.0
 20
0.0
 11
2.5E-002
 21
0.0
  0
LINE
  5
f6
100
AcDbEntity
  8
V0L1
100
AcDbLine
  6
CONTINUOUS
 62
0
 10
0.0
 20
2.5E-002
 11
0.0
 21
4.4875E-002
  0
LINE
  5
f7
100
AcDbEntity
  8
V0L1
100
AcDbLine
  6
CONTINUOUS
 62
0
 10
-2.5E-002
 20
0.0
 11
-4.4875E-002
 21
0.0
  0
LINE
  5
f8
100
AcDbEntity
  8
V0L1
100
AcDbLine
  6
CONTINUOUS
 62
0
 10
0.0
 20
-2.5E-002
 11
0.0
 21
-4.4875E-002
  0
LINE
  5
f9
100
AcDbEntity
  8
V0L1
100
AcDbLine
  6
CONTINUOUS
 62
0
 10
2.5E-002
 20
0.0
 11
4.4875E-002
 21
0.0
  0
ENDBLK
  5
fa
100
AcDbEntity
100
AcDbBlockEnd
  0
BLOCK
  5
fb
100
AcDbEntity
100
AcDbBlockBegin
  2
SW_CENTERMARKSYMBOL_17
 10
0.0
 20
0.0
 70
0
  0
LINE
  5
fc
100
AcDbEntity
  8
V0L1
100
AcDbLine
  6
CONTINUOUS
 62
0
 10
0.0
 20
0.0
 11
0.0
 21
2.5E-002
  0
LINE
  5
fd
100
AcDbEntity
  8
V0L1
100
AcDbLine
  6
CONTINUOUS
 62
0
 10
0.0
 20
0.0
 11
-2.5E-002
 21
0.0
  0
LINE
  5
fe
100
AcDbEntity
  8
V0L1
100
AcDbLine
  6
CONTINUOUS
 62
0
 10
0.0
 20
0.0
 11
0.0
 21
-2.5E-002
  0
LINE
  5
ff
100
AcDbEntity
  8
V0L1
100
AcDbLine
  6
CONTINUOUS
 62
0
 10
0.0
 20
0.0
 11
2.5E-002
 21
0.0
  0
LINE
  5
100
100
AcDbEntity
  8
V0L1
100
AcDbLine
  6
CONTINUOUS
 62
0
 10
0.0
 20
2.5E-002
 11
0.0
 21
4.4875E-002
  0
LINE
  5
101
100
AcDbEntity
  8
V0L1
100
AcDbLine
  6
CONTINUOUS
 62
0
 10
-2.5E-002
 20
0.0
 11
-4.4875E-002
 21
0.0
  0
LINE
  5
102
100
AcDbEntity
  8
V0L1
100
AcDbLine
  6
CONTINUOUS
 62
0
 10
0.0
 20
-2.5E-002
 11
0.0
 21
-4.4875E-002
  0
LINE
  5
103
100
AcDbEntity
  8
V0L1
100
AcDbLine
  6
CONTINUOUS
 62
0
 10
2.5E-002
 20
0.0
 11
4.4875E-002
 21
0.0
  0
ENDBLK
  5
104
100
AcDbEntity
100
AcDbBlockEnd
  0
BLOCK
  5
105
100
AcDbEntity
100
AcDbBlockBegin
  2
SW_CENTERMARKSYMBOL_18
 10
0.0
 20
0.0
 70
0
  0
LINE
  5
106
100
AcDbEntity
  8
V0L1
100
AcDbLine
  6
CONTINUOUS
 62
0
 10
0.0
 20
0.0
 11
0.0
 21
2.5E-002
  0
LINE
  5
107
100
AcDbEntity
  8
V0L1
100
AcDbLine
  6
CONTINUOUS
 62
0
 10
0.0
 20
0.0
 11
-2.5E-002
 21
0.0
  0
LINE
  5
108
100
AcDbEntity
  8
V0L1
100
AcDbLine
  6
CONTINUOUS
 62
0
 10
0.0
 20
0.0
 11
0.0
 21
-2.5E-002
  0
LINE
  5
109
100
AcDbEntity
  8
V0L1
100
AcDbLine
  6
CONTINUOUS
 62
0
 10
0.0
 20
0.0
 11
2.5E-002
 21
0.0
  0
LINE
  5
10a
100
AcDbEntity
  8
V0L1
100
AcDbLine
  6
CONTINUOUS
 62
0
 10
0.0
 20
2.5E-002
 11
0.0
 21
4.4875E-002
  0
LINE
  5
10b
100
AcDbEntity
  8
V0L1
100
AcDbLine
  6
CONTINUOUS
 62
0
 10
-2.5E-002
 20
0.0
 11
-4.4875E-002
 21
0.0
  0
LINE
  5
10c
100
AcDbEntity
  8
V0L1
100
AcDbLine
  6
CONTINUOUS
 62
0
 10
0.0
 20
-2.5E-002
 11
0.0
 21
-4.4875E-002
  0
LINE
  5
10d
100
AcDbEntity
  8
V0L1
100
AcDbLine
  6
CONTINUOUS
 62
0
 10
2.5E-002
 20
0.0
 11
4.4875E-002
 21
0.0
  0
ENDBLK
  5
10e
100
AcDbEntity
100
AcDbBlockEnd
  0
BLOCK
  5
10f
100
AcDbEntity
100
AcDbBlockBegin
  2
SW_CENTERMARKSYMBOL_19
 10
0.0
 20
0.0
 70
0
  0
LINE
  5
110
100
AcDbEntity
  8
V0L1
100
AcDbLine
  6
CONTINUOUS
 62
0
 10
0.0
 20
0.0
 11
0.0
 21
2.5E-002
  0
LINE
  5
111
100
AcDbEntity
  8
V0L1
100
AcDbLine
  6
CONTINUOUS
 62
0
 10
0.0
 20
0.0
 11
-2.5E-002
 21
0.0
  0
LINE
  5
112
100
AcDbEntity
  8
V0L1
100
AcDbLine
  6
CONTINUOUS
 62
0
 10
0.0
 20
0.0
 11
0.0
 21
-2.5E-002
  0
LINE
  5
113
100
AcDbEntity
  8
V0L1
100
AcDbLine
  6
CONTINUOUS
 62
0
 10
0.0
 20
0.0
 11
2.5E-002
 21
0.0
  0
LINE
  5
114
100
AcDbEntity
  8
V0L1
100
AcDbLine
  6
CONTINUOUS
 62
0
 10
0.0
 20
2.5E-002
 11
0.0
 21
4.4875E-002
  0
LINE
  5
115
100
AcDbEntity
  8
V0L1
100
AcDbLine
  6
CONTINUOUS
 62
0
 10
-2.5E-002
 20
0.0
 11
-4.4875E-002
 21
0.0
  0
LINE
  5
116
100
AcDbEntity
  8
V0L1
100
AcDbLine
  6
CONTINUOUS
 62
0
 10
0.0
 20
-2.5E-002
 11
0.0
 21
-4.4875E-002
  0
LINE
  5
117
100
AcDbEntity
  8
V0L1
100
AcDbLine
  6
CONTINUOUS
 62
0
 10
2.5E-002
 20
0.0
 11
4.4875E-002
 21
0.0
  0
ENDBLK
  5
118
100
AcDbEntity
100
AcDbBlockEnd
  0
BLOCK
  5
119
100
AcDbEntity
100
AcDbBlockBegin
  2
SW_CENTERMARKSYMBOL_20
 10
0.0
 20
0.0
 70
0
  0
LINE
  5
11a
100
AcDbEntity
  8
V0L1
100
AcDbLine
  6
CONTINUOUS
 62
0
 10
0.0
 20
0.0
 11
0.0
 21
2.5E-002
  0
LINE
  5
11b
100
AcDbEntity
  8
V0L1
100
AcDbLine
  6
CONTINUOUS
 62
0
 10
0.0
 20
0.0
 11
-2.5E-002
 21
0.0
  0
LINE
  5
11c
100
AcDbEntity
  8
V0L1
100
AcDbLine
  6
CONTINUOUS
 62
0
 10
0.0
 20
0.0
 11
0.0
 21
-2.5E-002
  0
LINE
  5
11d
100
AcDbEntity
  8
V0L1
100
AcDbLine
  6
CONTINUOUS
 62
0
 10
0.0
 20
0.0
 11
2.5E-002
 21
0.0
  0
LINE
  5
11e
100
AcDbEntity
  8
V0L1
100
AcDbLine
  6
CONTINUOUS
 62
0
 10
0.0
 20
2.5E-002
 11
0.0
 21
4.4875E-002
  0
LINE
  5
11f
100
AcDbEntity
  8
V0L1
100
AcDbLine
  6
CONTINUOUS
 62
0
 10
-2.5E-002
 20
0.0
 11
-4.4875E-002
 21
0.0
  0
LINE
  5
120
100
AcDbEntity
  8
V0L1
100
AcDbLine
  6
CONTINUOUS
 62
0
 10
0.0
 20
-2.5E-002
 11
0.0
 21
-4.4875E-002
  0
LINE
  5
121
100
AcDbEntity
  8
V0L1
100
AcDbLine
  6
CONTINUOUS
 62
0
 10
2.5E-002
 20
0.0
 11
4.4875E-002
 21
0.0
  0
ENDBLK
  5
122
100
AcDbEntity
100
AcDbBlockEnd
  0
BLOCK
  5
123
100
AcDbEntity
100
AcDbBlockBegin
  2
SW_CENTERMARKSYMBOL_21
 10
0.0
 20
0.0
 70
0
  0
LINE
  5
124
100
AcDbEntity
  8
V0L1
100
AcDbLine
  6
CONTINUOUS
 62
0
 10
0.0
 20
0.0
 11
0.0
 21
2.5E-002
  0
LINE
  5
125
100
AcDbEntity
  8
V0L1
100
AcDbLine
  6
CONTINUOUS
 62
0
 10
0.0
 20
0.0
 11
-2.5E-002
 21
0.0
  0
LINE
  5
126
100
AcDbEntity
  8
V0L1
100
AcDbLine
  6
CONTINUOUS
 62
0
 10
0.0
 20
0.0
 11
0.0
 21
-2.5E-002
  0
LINE
  5
127
100
AcDbEntity
  8
V0L1
100
AcDbLine
  6
CONTINUOUS
 62
0
 10
0.0
 20
0.0
 11
2.5E-002
 21
0.0
  0
LINE
  5
128
100
AcDbEntity
  8
V0L1
100
AcDbLine
  6
CONTINUOUS
 62
0
 10
0.0
 20
2.5E-002
 11
0.0
 21
4.4875E-002
  0
LINE
  5
129
100
AcDbEntity
  8
V0L1
100
AcDbLine
  6
CONTINUOUS
 62
0
 10
-2.5E-002
 20
0.0
 11
-4.4875E-002
 21
0.0
  0
LINE
  5
12a
100
AcDbEntity
  8
V0L1
100
AcDbLine
  6
CONTINUOUS
 62
0
 10
0.0
 20
-2.5E-002
 11
0.0
 21
-4.4875E-002
  0
LINE
  5
12b
100
AcDbEntity
  8
V0L1
100
AcDbLine
  6
CONTINUOUS
 62
0
 10
2.5E-002
 20
0.0
 11
4.4875E-002
 21
0.0
  0
ENDBLK
  5
12c
100
AcDbEntity
100
AcDbBlockEnd
  0
BLOCK
  5
12d
100
AcDbEntity
100
AcDbBlockBegin
  2
SW_CENTERMARKSYMBOL_22
 10
0.0
 20
0.0
 70
0
  0
LINE
  5
12e
100
AcDbEntity
  8
V0L1
100
AcDbLine
  6
CONTINUOUS
 62
0
 10
0.0
 20
0.0
 11
0.0
 21
2.5E-002
  0
LINE
  5
12f
100
AcDbEntity
  8
V0L1
100
AcDbLine
  6
CONTINUOUS
 62
0
 10
0.0
 20
0.0
 11
-2.5E-002
 21
0.0
  0
LINE
  5
130
100
AcDbEntity
  8
V0L1
100
AcDbLine
  6
CONTINUOUS
 62
0
 10
0.0
 20
0.0
 11
0.0
 21
-2.5E-002
  0
LINE
  5
131
100
AcDbEntity
  8
V0L1
100
AcDbLine
  6
CONTINUOUS
 62
0
 10
0.0
 20
0.0
 11
2.5E-002
 21
0.0
  0
LINE
  5
132
100
AcDbEntity
  8
V0L1
100
AcDbLine
  6
CONTINUOUS
 62
0
 10
0.0
 20
2.5E-002
 11
0.0
 21
4.4875E-002
  0
LINE
  5
133
100
AcDbEntity
  8
V0L1
100
AcDbLine
  6
CONTINUOUS
 62
0
 10
-2.5E-002
 20
0.0
 11
-4.4875E-002
 21
0.0
  0
LINE
  5
134
100
AcDbEntity
  8
V0L1
100
AcDbLine
  6
CONTINUOUS
 62
0
 10
0.0
 20
-2.5E-002
 11
0.0
 21
-4.4875E-002
  0
LINE
  5
135
100
AcDbEntity
  8
V0L1
100
AcDbLine
  6
CONTINUOUS
 62
0
 10
2.5E-002
 20
0.0
 11
4.4875E-002
 21
0.0
  0
ENDBLK
  5
136
100
AcDbEntity
100
AcDbBlockEnd
  0
BLOCK
  5
137
100
AcDbEntity
100
AcDbBlockBegin
  2
SW_CENTERMARKSYMBOL_23
 10
0.0
 20
0.0
 70
0
  0
LINE
  5
138
100
AcDbEntity
  8
V0L1
100
AcDbLine
  6
CONTINUOUS
 62
0
 10
0.0
 20
0.0
 11
0.0
 21
2.5E-002
  0
LINE
  5
139
100
AcDbEntity
  8
V0L1
100
AcDbLine
  6
CONTINUOUS
 62
0
 10
0.0
 20
0.0
 11
-2.5E-002
 21
0.0
  0
LINE
  5
13a
100
AcDbEntity
  8
V0L1
100
AcDbLine
  6
CONTINUOUS
 62
0
 10
0.0
 20
0.0
 11
0.0
 21
-2.5E-002
  0
LINE
  5
13b
100
AcDbEntity
  8
V0L1
100
AcDbLine
  6
CONTINUOUS
 62
0
 10
0.0
 20
0.0
 11
2.5E-002
 21
0.0
  0
LINE
  5
13c
100
AcDbEntity
  8
V0L1
100
AcDbLine
  6
CONTINUOUS
 62
0
 10
0.0
 20
2.5E-002
 11
0.0
 21
4.4875E-002
  0
LINE
  5
13d
100
AcDbEntity
  8
V0L1
100
AcDbLine
  6
CONTINUOUS
 62
0
 10
-2.5E-002
 20
0.0
 11
-4.4875E-002
 21
0.0
  0
LINE
  5
13e
100
AcDbEntity
  8
V0L1
100
AcDbLine
  6
CONTINUOUS
 62
0
 10
0.0
 20
-2.5E-002
 11
0.0
 21
-4.4875E-002
  0
LINE
  5
13f
100
AcDbEntity
  8
V0L1
100
AcDbLine
  6
CONTINUOUS
 62
0
 10
2.5E-002
 20
0.0
 11
4.4875E-002
 21
0.0
  0
ENDBLK
  5
140
100
AcDbEntity
100
AcDbBlockEnd
  0
BLOCK
  5
141
100
AcDbEntity
100
AcDbBlockBegin
  2
SW_CENTERMARKSYMBOL_24
 10
0.0
 20
0.0
 70
0
  0
LINE
  5
142
100
AcDbEntity
  8
V0L1
100
AcDbLine
  6
CONTINUOUS
 62
0
 10
0.0
 20
0.0
 11
0.0
 21
2.5E-002
  0
LINE
  5
143
100
AcDbEntity
  8
V0L1
100
AcDbLine
  6
CONTINUOUS
 62
0
 10
0.0
 20
0.0
 11
-2.5E-002
 21
0.0
  0
LINE
  5
144
100
AcDbEntity
  8
V0L1
100
AcDbLine
  6
CONTINUOUS
 62
0
 10
0.0
 20
0.0
 11
0.0
 21
-2.5E-002
  0
LINE
  5
145
100
AcDbEntity
  8
V0L1
100
AcDbLine
  6
CONTINUOUS
 62
0
 10
0.0
 20
0.0
 11
2.5E-002
 21
0.0
  0
LINE
  5
146
100
AcDbEntity
  8
V0L1
100
AcDbLine
  6
CONTINUOUS
 62
0
 10
0.0
 20
2.5E-002
 11
0.0
 21
4.4875E-002
  0
LINE
  5
147
100
AcDbEntity
  8
V0L1
100
AcDbLine
  6
CONTINUOUS
 62
0
 10
-2.5E-002
 20
0.0
 11
-4.4875E-002
 21
0.0
  0
LINE
  5
148
100
AcDbEntity
  8
V0L1
100
AcDbLine
  6
CONTINUOUS
 62
0
 10
0.0
 20
-2.5E-002
 11
0.0
 21
-4.4875E-002
  0
LINE
  5
149
100
AcDbEntity
  8
V0L1
100
AcDbLine
  6
CONTINUOUS
 62
0
 10
2.5E-002
 20
0.0
 11
4.4875E-002
 21
0.0
  0
ENDBLK
  5
14a
100
AcDbEntity
100
AcDbBlockEnd
  0
BLOCK
  5
14b
100
AcDbEntity
100
AcDbBlockBegin
  2
SW_CENTERMARKSYMBOL_25
 10
0.0
 20
0.0
 70
0
  0
LINE
  5
14c
100
AcDbEntity
  8
V0L1
100
AcDbLine
  6
CONTINUOUS
 62
0
 10
0.0
 20
0.0
 11
0.0
 21
2.5E-002
  0
LINE
  5
14d
100
AcDbEntity
  8
V0L1
100
AcDbLine
  6
CONTINUOUS
 62
0
 10
0.0
 20
0.0
 11
-2.5E-002
 21
0.0
  0
LINE
  5
14e
100
AcDbEntity
  8
V0L1
100
AcDbLine
  6
CONTINUOUS
 62
0
 10
0.0
 20
0.0
 11
0.0
 21
-2.5E-002
  0
LINE
  5
14f
100
AcDbEntity
  8
V0L1
100
AcDbLine
  6
CONTINUOUS
 62
0
 10
0.0
 20
0.0
 11
2.5E-002
 21
0.0
  0
LINE
  5
150
100
AcDbEntity
  8
V0L1
100
AcDbLine
  6
CONTINUOUS
 62
0
 10
0.0
 20
2.5E-002
 11
0.0
 21
4.4875E-002
  0
LINE
  5
151
100
AcDbEntity
  8
V0L1
100
AcDbLine
  6
CONTINUOUS
 62
0
 10
-2.5E-002
 20
0.0
 11
-4.4875E-002
 21
0.0
  0
LINE
  5
152
100
AcDbEntity
  8
V0L1
100
AcDbLine
  6
CONTINUOUS
 62
0
 10
0.0
 20
-2.5E-002
 11
0.0
 21
-4.4875E-002
  0
LINE
  5
153
100
AcDbEntity
  8
V0L1
100
AcDbLine
  6
CONTINUOUS
 62
0
 10
2.5E-002
 20
0.0
 11
4.4875E-002
 21
0.0
  0
ENDBLK
  5
154
100
AcDbEntity
100
AcDbBlockEnd
  0
BLOCK
  5
155
100
AcDbEntity
100
AcDbBlockBegin
  2
SW_CENTERMARKSYMBOL_26
 10
0.0
 20
0.0
 70
0
  0
LINE
  5
156
100
AcDbEntity
  8
V0L1
100
AcDbLine
  6
CONTINUOUS
 62
0
 10
0.0
 20
0.0
 11
0.0
 21
2.5E-002
  0
LINE
  5
157
100
AcDbEntity
  8
V0L1
100
AcDbLine
  6
CONTINUOUS
 62
0
 10
0.0
 20
0.0
 11
-2.5E-002
 21
0.0
  0
LINE
  5
158
100
AcDbEntity
  8
V0L1
100
AcDbLine
  6
CONTINUOUS
 62
0
 10
0.0
 20
0.0
 11
0.0
 21
-2.5E-002
  0
LINE
  5
159
100
AcDbEntity
  8
V0L1
100
AcDbLine
  6
CONTINUOUS
 62
0
 10
0.0
 20
0.0
 11
2.5E-002
 21
0.0
  0
LINE
  5
15a
100
AcDbEntity
  8
V0L1
100
AcDbLine
  6
CONTINUOUS
 62
0
 10
0.0
 20
2.5E-002
 11
0.0
 21
4.4875E-002
  0
LINE
  5
15b
100
AcDbEntity
  8
V0L1
100
AcDbLine
  6
CONTINUOUS
 62
0
 10
-2.5E-002
 20
0.0
 11
-4.4875E-002
 21
0.0
  0
LINE
  5
15c
100
AcDbEntity
  8
V0L1
100
AcDbLine
  6
CONTINUOUS
 62
0
 10
0.0
 20
-2.5E-002
 11
0.0
 21
-4.4875E-002
  0
LINE
  5
15d
100
AcDbEntity
  8
V0L1
100
AcDbLine
  6
CONTINUOUS
 62
0
 10
2.5E-002
 20
0.0
 11
4.4875E-002
 21
0.0
  0
ENDBLK
  5
15e
100
AcDbEntity
100
AcDbBlockEnd
  0
BLOCK
  5
15f
100
AcDbEntity
100
AcDbBlockBegin
  2
SW_CENTERMARKSYMBOL_27
 10
0.0
 20
0.0
 70
0
  0
LINE
  5
160
100
AcDbEntity
  8
V0L1
100
AcDbLine
  6
CONTINUOUS
 62
0
 10
0.0
 20
0.0
 11
0.0
 21
2.5E-002
  0
LINE
  5
161
100
AcDbEntity
  8
V0L1
100
AcDbLine
  6
CONTINUOUS
 62
0
 10
0.0
 20
0.0
 11
-2.5E-002
 21
0.0
  0
LINE
  5
162
100
AcDbEntity
  8
V0L1
100
AcDbLine
  6
CONTINUOUS
 62
0
 10
0.0
 20
0.0
 11
0.0
 21
-2.5E-002
  0
LINE
  5
163
100
AcDbEntity
  8
V0L1
100
AcDbLine
  6
CONTINUOUS
 62
0
 10
0.0
 20
0.0
 11
2.5E-002
 21
0.0
  0
LINE
  5
164
100
AcDbEntity
  8
V0L1
100
AcDbLine
  6
CONTINUOUS
 62
0
 10
0.0
 20
2.5E-002
 11
0.0
 21
4.4875E-002
  0
LINE
  5
165
100
AcDbEntity
  8
V0L1
100
AcDbLine
  6
CONTINUOUS
 62
0
 10
-2.5E-002
 20
0.0
 11
-4.4875E-002
 21
0.0
  0
LINE
  5
166
100
AcDbEntity
  8
V0L1
100
AcDbLine
  6
CONTINUOUS
 62
0
 10
0.0
 20
-2.5E-002
 11
0.0
 21
-4.4875E-002
  0
LINE
  5
167
100
AcDbEntity
  8
V0L1
100
AcDbLine
  6
CONTINUOUS
 62
0
 10
2.5E-002
 20
0.0
 11
4.4875E-002
 21
0.0
  0
ENDBLK
  5
168
100
AcDbEntity
100
AcDbBlockEnd
  0
BLOCK
  5
169
100
AcDbEntity
100
AcDbBlockBegin
  2
*TX61
  3
*TX
 10
0.0
 20
0.0
 70
65
  0
TEXT
  5
16a
100
AcDbEntity
  8
V0L1
100
AcDbText
  6
CONTINUOUS
 62
1
 10
0.0
 20
0.0
 40
1.0
  1
      DXFC - GA201924-2M
100
AcDbText
  0
TEXT
  5
16b
100
AcDbEntity
  8
V0L1
100
AcDbText
  6
CONTINUOUS
 62
1
 10
0.0
 20
-1.5
 40
1.0
  1
         KA4C2DSP23L
100
AcDbText
  0
TEXT
  5
16c
100
AcDbEntity
  8
V0L1
100
AcDbText
  6
CONTINUOUS
 62
1
 10
0.0
 20
-3.0
 40
1.0
  1
         2/17/22 DW-
100
AcDbText
  0
TEXT
  5
16d
100
AcDbEntity
  8
V0L1
100
AcDbText
  6
CONTINUOUS
 62
1
 10
0.0
 20
-4.5
 40
1.0
  1
       KOOLTRONIC, INC.
100
AcDbText
  0
TEXT
  5
16e
100
AcDbEntity
  8
V0L1
100
AcDbText
  6
CONTINUOUS
 62
1
 10
0.0
 20
-6.0
 40
1.0
  1
GEOMETRY IS SUBJECT TO CHANGE
100
AcDbText
  0
ENDBLK
  5
16f
100
AcDbEntity
100
AcDbBlockEnd
  0
BLOCK
  5
170
100
AcDbEntity
100
AcDbBlockBegin
  2
_AH1
 70
0
 10
0.0
 20
0.0
  3
_AH1
  0
LINE
  5
171
100
AcDbEntity
  8
V0L1
100
AcDbLine
  6
CONTINUOUS
 62
0
 10
-1.0
 20
1.66667E-001
 11
0.0
 21
0.0
  0
LINE
  5
172
100
AcDbEntity
  8
V0L1
100
AcDbLine
  6
CONTINUOUS
 62
0
 10
0.0
 20
0.0
 11
-1.0
 21
-1.66667E-001
  0
LINE
  5
173
100
AcDbEntity
  8
V0L1
100
AcDbLine
  6
CONTINUOUS
 62
0
 10
-1.0
 20
1.66667E-001
 11
-1.0
 21
-1.66667E-001
  0
LINE
  5
174
100
AcDbEntity
  8
V0L1
100
AcDbLine
  6
CONTINUOUS
 62
0
 10
0.0
 20
0.0
 11
-1.0
 21
0.0
  0
ENDBLK
  5
175
100
AcDbEntity
100
AcDbBlockEnd
  0
BLOCK
  5
176
100
AcDbEntity
100
AcDbBlockBegin
  2
_AH2
 70
0
 10
0.0
 20
0.0
  3
_AH2
  0
LINE
  5
177
100
AcDbEntity
  8
V0L1
100
AcDbLine
  6
CONTINUOUS
 62
0
 10
-1.0
 20
1.66667E-001
 11
0.0
 21
0.0
  0
LINE
  5
178
100
AcDbEntity
  8
V0L1
100
AcDbLine
  6
CONTINUOUS
 62
0
 10
0.0
 20
0.0
 11
-1.0
 21
-1.66667E-001
  0
LINE
  5
179
100
AcDbEntity
  8
V0L1
100
AcDbLine
  6
CONTINUOUS
 62
0
 10
0.0
 20
0.0
 11
-1.0
 21
0.0
  0
ENDBLK
  5
17a
100
AcDbEntity
100
AcDbBlockEnd
  0
ENDSEC
  0
SECTION
  2
ENTITIES
  0
LINE
  5
17b
100
AcDbEntity
  8
V1L2
100
AcDbLine
  6
CENTERLINE
 62
1
 10
7.9447577
 20
2.7800475E+001
 11
2.8590758E+001
 21
2.7800475E+001
  0
LINE
  5
17c
100
AcDbEntity
  8
V1L2
100
AcDbLine
  6
CENTERLINE
 62
1
 10
7.9447577
 20
2.7800475E+001
 11
7.9447577
 21
4.3204742
  0
LINE
  5
17d
100
AcDbEntity
  8
V1L2
100
AcDbLine
  6
CENTERLINE
 62
1
 10
7.9447577
 20
4.3204742
 11
2.8590758E+001
 21
4.3204742
  0
LINE
  5
17e
100
AcDbEntity
  8
V1L2
100
AcDbLine
  6
CENTERLINE
 62
1
 10
2.8590758E+001
 20
2.7800475E+001
 11
2.8590758E+001
 21
4.3204742
  0
LINE
  5
17f
100
AcDbEntity
  8
V1L2
100
AcDbLine
  6
HIDDEN
 62
1
 10
8.7687577
 20
1.2515475E+001
 11
2.0818758E+001
 21
1.2515475E+001
  0
LINE
  5
180
100
AcDbEntity
  8
V1L2
100
AcDbLine
  6
HIDDEN
 62
1
 10
8.7687577
 20
1.2515475E+001
 11
8.7687577
 21
4.8454742
  0
LINE
  5
181
100
AcDbEntity
  8
V1L2
100
AcDbLine
  6
HIDDEN
 62
1
 10
8.7687577
 20
4.8454742
 11
2.0818758E+001
 21
4.8454742
  0
LINE
  5
182
100
AcDbEntity
  8
V1L2
100
AcDbLine
  6
HIDDEN
 62
1
 10
2.0818758E+001
 20
1.2515475E+001
 11
2.0818758E+001
 21
4.8454742
  0
LINE
  5
183
100
AcDbEntity
  8
V1L2
100
AcDbLine
  6
CENTERLINE
 62
1
 10
2.9391758E+001
 20
4.3204742
 11
2.8590758E+001
 21
4.3204742
  0
LINE
  5
184
100
AcDbEntity
  8
V1L2
100
AcDbLine
  6
CENTERLINE
 62
1
 10
2.9391758E+001
 20
4.3204742
 11
2.9391758E+001
 21
2.7800475E+001
  0
LINE
  5
185
100
AcDbEntity
  8
V1L2
100
AcDbLine
  6
CENTERLINE
 62
1
 10
8.1532577
 20
4.3204742
 11
7.9447577
 21
4.3204742
  0
LINE
  5
186
100
AcDbEntity
  8
V1L2
100
AcDbLine
  6
CENTERLINE
 62
1
 10
2.9391758E+001
 20
2.7800475E+001
 11
2.8590758E+001
 21
2.7800475E+001
  0
LINE
  5
187
100
AcDbEntity
  8
V1L2
100
AcDbLine
  6
CENTERLINE
 62
1
 10
2.8590758E+001
 20
4.3204742
 11
2.8590758E+001
 21
2.7800475E+001
  0
LINE
  5
188
100
AcDbEntity
  8
V1L2
100
AcDbLine
  6
CENTERLINE
 62
1
 10
7.1338097
 20
4.320313
 11
7.9447577
 21
4.320313
  0
LINE
  5
189
100
AcDbEntity
  8
V1L2
100
AcDbLine
  6
CENTERLINE
 62
1
 10
7.1338097
 20
4.320313
 11
7.1338097
 21
2.7800475E+001
  0
LINE
  5
18a
100
AcDbEntity
  8
V1L2
100
AcDbLine
  6
CENTERLINE
 62
1
 10
7.1338097
 20
2.7800475E+001
 11
7.9447577
 21
2.7800475E+001
  0
LINE
  5
18b
100
AcDbEntity
  8
V1L2
100
AcDbLine
  6
CENTERLINE
 62
1
 10
7.9447577
 20
4.320313
 11
7.9447577
 21
2.7800475E+001
  0
LINE
  5
18c
100
AcDbEntity
  8
V1L2
100
AcDbLine
  6
HIDDEN
 62
1
 10
2.0892758E+001
 20
2.7175475E+001
 11
2.8218758E+001
 21
2.7175475E+001
  0
LINE
  5
18d
100
AcDbEntity
  8
V1L2
100
AcDbLine
  6
HIDDEN
 62
1
 10
2.0892758E+001
 20
2.7175475E+001
 11
2.0892758E+001
 21
1.9675475E+001
  0
LINE
  5
18e
100
AcDbEntity
  8
V1L2
100
AcDbLine
  6
HIDDEN
 62
1
 10
2.0892758E+001
 20
1.9675475E+001
 11
2.8218758E+001
 21
1.9675475E+001
  0
LINE
  5
18f
100
AcDbEntity
  8
V1L2
100
AcDbLine
  6
HIDDEN
 62
1
 10
2.8218758E+001
 20
2.7175475E+001
 11
2.8218758E+001
 21
1.9675475E+001
  0
CIRCLE
  5
190
100
AcDbEntity
  8
V1L2
100
AcDbCircle
  6
CONTINUOUS
 62
1
 10
2.9133758E+001
 20
2.6810311E+001
 40
7.95E-002
  0
CIRCLE
  5
191
100
AcDbEntity
  8
V1L2
100
AcDbCircle
  6
CONTINUOUS
 62
1
 10
2.9133574E+001
 20
5.310313
 40
7.95E-002
  0
CIRCLE
  5
192
100
AcDbEntity
  8
V1L2
100
AcDbCircle
  6
CONTINUOUS
 62
1
 10
7.4062577
 20
2.7310311E+001
 40
7.95E-002
  0
CIRCLE
  5
193
100
AcDbEntity
  8
V1L2
100
AcDbCircle
  6
CONTINUOUS
 62
1
 10
7.4062577
 20
1.9810311E+001
 40
7.95E-002
  0
CIRCLE
  5
194
100
AcDbEntity
  8
V1L2
100
AcDbCircle
  6
CONTINUOUS
 62
1
 10
2.9134218E+001
 20
1.6060475E+001
 40
7.95E-002
  0
CIRCLE
  5
195
100
AcDbEntity
  8
V1L2
100
AcDbCircle
  6
CONTINUOUS
 62
1
 10
7.4062577
 20
1.2310311E+001
 40
7.95E-002
  0
CIRCLE
  5
196
100
AcDbEntity
  8
V1L2
100
AcDbCircle
  6
CONTINUOUS
 62
1
 10
7.4062577
 20
4.810313
 40
7.95E-002
  0
CIRCLE
  5
197
100
AcDbEntity
  8
V1L2
100
AcDbCircle
  6
CONTINUOUS
 62
1
 10
7.4059897
 20
2.6810475E+001
 40
7.95E-002
  0
CIRCLE
  5
198
100
AcDbEntity
  8
V1L2
100
AcDbCircle
  6
CONTINUOUS
 62
1
 10
2.9129258E+001
 20
4.810313
 40
7.95E-002
  0
CIRCLE
  5
199
100
AcDbEntity
  8
V1L2
100
AcDbCircle
  6
CONTINUOUS
 62
1
 10
7.4057577
 20
5.3100422
 40
7.95E-002
  0
CIRCLE
  5
19a
100
AcDbEntity
  8
V1L2
100
AcDbCircle
  6
CONTINUOUS
 62
1
 10
2.9129258E+001
 20
1.2310311E+001
 40
7.95E-002
  0
CIRCLE
  5
19b
100
AcDbEntity
  8
V1L2
100
AcDbCircle
  6
CONTINUOUS
 62
1
 10
7.4017577
 20
1.6060311E+001
 40
7.95E-002
  0
CIRCLE
  5
19c
100
AcDbEntity
  8
V1L2
100
AcDbCircle
  6
CONTINUOUS
 62
1
 10
2.9129258E+001
 20
1.9810311E+001
 40
7.95E-002
  0
CIRCLE
  5
19d
100
AcDbEntity
  8
V1L2
100
AcDbCircle
  6
CONTINUOUS
 62
1
 10
2.9129258E+001
 20
2.7310311E+001
 40
7.95E-002
  0
INSERT
  5
19e
100
AcDbEntity
100
AcDbBlockReference
  2
SW_CENTERMARKSYMBOL_14
  8
V1L2
 10
7.4062577
 20
4.810313
 41
4.0
 43
4.0
 42
4.0
  0
INSERT
  5
19f
100
AcDbEntity
100
AcDbBlockReference
  2
SW_CENTERMARKSYMBOL_15
  8
V1L2
 10
7.4057577
 20
5.3100422
 41
4.0
 43
4.0
 42
4.0
  0
INSERT
  5
1a0
100
AcDbEntity
100
AcDbBlockReference
  2
SW_CENTERMARKSYMBOL_16
  8
V1L2
 10
7.4062577
 20
1.2310311E+001
 41
4.0
 43
4.0
 42
4.0
  0
INSERT
  5
1a1
100
AcDbEntity
100
AcDbBlockReference
  2
SW_CENTERMARKSYMBOL_17
  8
V1L2
 10
7.4017577
 20
1.6060311E+001
 41
4.0
 43
4.0
 42
4.0
  0
INSERT
  5
1a2
100
AcDbEntity
100
AcDbBlockReference
  2
SW_CENTERMARKSYMBOL_18
  8
V1L2
 10
7.4062577
 20
1.9810311E+001
 41
4.0
 43
4.0
 42
4.0
  0
INSERT
  5
1a3
100
AcDbEntity
100
AcDbBlockReference
  2
SW_CENTERMARKSYMBOL_19
  8
V1L2
 10
7.4059897
 20
2.6810475E+001
 41
4.0
 43
4.0
 42
4.0
  0
INSERT
  5
1a4
100
AcDbEntity
100
AcDbBlockReference
  2
SW_CENTERMARKSYMBOL_20
  8
V1L2
 10
7.4062577
 20
2.7310311E+001
 41
4.0
 43
4.0
 42
4.0
  0
INSERT
  5
1a5
100
AcDbEntity
100
AcDbBlockReference
  2
SW_CENTERMARKSYMBOL_21
  8
V1L2
 10
2.9129258E+001
 20
1.2310311E+001
 41
4.0
 43
4.0
 42
4.0
  0
INSERT
  5
1a6
100
AcDbEntity
100
AcDbBlockReference
  2
SW_CENTERMARKSYMBOL_22
  8
V1L2
 10
2.9134218E+001
 20
1.6060475E+001
 41
4.0
 43
4.0
 42
4.0
  0
INSERT
  5
1a7
100
AcDbEntity
100
AcDbBlockReference
  2
SW_CENTERMARKSYMBOL_23
  8
V1L2
 10
2.9129258E+001
 20
1.9810311E+001
 41
4.0
 43
4.0
 42
4.0
  0
INSERT
  5
1a8
100
AcDbEntity
100
AcDbBlockReference
  2
SW_CENTERMARKSYMBOL_24
  8
V1L2
 10
2.9133758E+001
 20
2.6810311E+001
 41
4.0
 43
4.0
 42
4.0
  0
INSERT
  5
1a9
100
AcDbEntity
100
AcDbBlockReference
  2
SW_CENTERMARKSYMBOL_25
  8
V1L2
 10
2.9129258E+001
 20
2.7310311E+001
 41
4.0
 43
4.0
 42
4.0
  0
INSERT
  5
1aa
100
AcDbEntity
100
AcDbBlockReference
  2
SW_CENTERMARKSYMBOL_26
  8
V1L2
 10
2.9129258E+001
 20
4.810313
 41
4.0
 43
4.0
 42
4.0
  0
INSERT
  5
1ab
100
AcDbEntity
100
AcDbBlockReference
  2
SW_CENTERMARKSYMBOL_27
  8
V1L2
 10
2.9133574E+001
 20
5.310313
 41
4.0
 43
4.0
 42
4.0
  0
LINE
  5
1ac
100
AcDbEntity
  8
V1L1
100
AcDbLine
  6
CONTINUOUS
 62
1
 10
2.9254258E+001
 20
2.7310311E+001
 11
2.9004258E+001
 21
2.7310311E+001
  0
LINE
  5
1ad
100
AcDbEntity
  8
V1L1
100
AcDbLine
  6
CONTINUOUS
 62
1
 10
2.9129258E+001
 20
2.7435311E+001
 11
2.9129258E+001
 21
2.7185311E+001
  0
LINE
  5
1ae
100
AcDbEntity
  8
V1L1
100
AcDbLine
  6
CONTINUOUS
 62
1
 10
2.9316758E+001
 20
2.7310311E+001
 11
2.9333758E+001
 21
2.7310311E+001
  0
LINE
  5
1af
100
AcDbEntity
  8
V1L1
100
AcDbLine
  6
CONTINUOUS
 62
1
 10
2.9129258E+001
 20
2.7497811E+001
 11
2.9129258E+001
 21
2.7514811E+001
  0
LINE
  5
1b0
100
AcDbEntity
  8
V1L1
100
AcDbLine
  6
CONTINUOUS
 62
1
 10
2.8941758E+001
 20
2.7310311E+001
 11
2.8924758E+001
 21
2.7310311E+001
  0
LINE
  5
1b1
100
AcDbEntity
  8
V1L1
100
AcDbLine
  6
CONTINUOUS
 62
1
 10
2.9129258E+001
 20
2.7122811E+001
 11
2.9129258E+001
 21
2.7105811E+001
  0
LINE
  5
1b2
100
AcDbEntity
  8
V1L1
100
AcDbLine
  6
CONTINUOUS
 62
1
 10
2.9258758E+001
 20
2.6810311E+001
 11
2.9008758E+001
 21
2.6810311E+001
  0
LINE
  5
1b3
100
AcDbEntity
  8
V1L1
100
AcDbLine
  6
CONTINUOUS
 62
1
 10
2.9133758E+001
 20
2.6935311E+001
 11
2.9133758E+001
 21
2.6685311E+001
  0
LINE
  5
1b4
100
AcDbEntity
  8
V1L1
100
AcDbLine
  6
CONTINUOUS
 62
1
 10
2.9321258E+001
 20
2.6810311E+001
 11
2.9338258E+001
 21
2.6810311E+001
  0
LINE
  5
1b5
100
AcDbEntity
  8
V1L1
100
AcDbLine
  6
CONTINUOUS
 62
1
 10
2.9133758E+001
 20
2.6997811E+001
 11
2.9133758E+001
 21
2.7014811E+001
  0
LINE
  5
1b6
100
AcDbEntity
  8
V1L1
100
AcDbLine
  6
CONTINUOUS
 62
1
 10
2.8946258E+001
 20
2.6810311E+001
 11
2.8929258E+001
 21
2.6810311E+001
  0
LINE
  5
1b7
100
AcDbEntity
  8
V1L1
100
AcDbLine
  6
CONTINUOUS
 62
1
 10
2.9133758E+001
 20
2.6622811E+001
 11
2.9133758E+001
 21
2.6605811E+001
  0
LINE
  5
1b8
100
AcDbEntity
  8
V1L1
100
AcDbLine
  6
CONTINUOUS
 62
1
 10
2.9254258E+001
 20
1.9810311E+001
 11
2.9004258E+001
 21
1.9810311E+001
  0
LINE
  5
1b9
100
AcDbEntity
  8
V1L1
100
AcDbLine
  6
CONTINUOUS
 62
1
 10
2.9129258E+001
 20
1.9935311E+001
 11
2.9129258E+001
 21
1.9685311E+001
  0
LINE
  5
1ba
100
AcDbEntity
  8
V1L1
100
AcDbLine
  6
CONTINUOUS
 62
1
 10
2.9316758E+001
 20
1.9810311E+001
 11
2.9333758E+001
 21
1.9810311E+001
  0
LINE
  5
1bb
100
AcDbEntity
  8
V1L1
100
AcDbLine
  6
CONTINUOUS
 62
1
 10
2.9129258E+001
 20
1.9997811E+001
 11
2.9129258E+001
 21
2.0014811E+001
  0
LINE
  5
1bc
100
AcDbEntity
  8
V1L1
100
AcDbLine
  6
CONTINUOUS
 62
1
 10
2.8941758E+001
 20
1.9810311E+001
 11
2.8924758E+001
 21
1.9810311E+001
  0
LINE
  5
1bd
100
AcDbEntity
  8
V1L1
100
AcDbLine
  6
CONTINUOUS
 62
1
 10
2.9129258E+001
 20
1.9622811E+001
 11
2.9129258E+001
 21
1.9605811E+001
  0
LINE
  5
1be
100
AcDbEntity
  8
V1L1
100
AcDbLine
  6
CONTINUOUS
 62
1
 10
2.9259218E+001
 20
1.6060475E+001
 11
2.9009218E+001
 21
1.6060475E+001
  0
LINE
  5
1bf
100
AcDbEntity
  8
V1L1
100
AcDbLine
  6
CONTINUOUS
 62
1
 10
2.9134218E+001
 20
1.6185475E+001
 11
2.9134218E+001
 21
1.5935475E+001
  0
LINE
  5
1c0
100
AcDbEntity
  8
V1L1
100
AcDbLine
  6
CONTINUOUS
 62
1
 10
2.9321718E+001
 20
1.6060475E+001
 11
2.9338718E+001
 21
1.6060475E+001
  0
LINE
  5
1c1
100
AcDbEntity
  8
V1L1
100
AcDbLine
  6
CONTINUOUS
 62
1
 10
2.9134218E+001
 20
1.6247975E+001
 11
2.9134218E+001
 21
1.6264975E+001
  0
LINE
  5
1c2
100
AcDbEntity
  8
V1L1
100
AcDbLine
  6
CONTINUOUS
 62
1
 10
2.8946718E+001
 20
1.6060475E+001
 11
2.8929718E+001
 21
1.6060475E+001
  0
LINE
  5
1c3
100
AcDbEntity
  8
V1L1
100
AcDbLine
  6
CONTINUOUS
 62
1
 10
2.9134218E+001
 20
1.5872975E+001
 11
2.9134218E+001
 21
1.5855975E+001
  0
LINE
  5
1c4
100
AcDbEntity
  8
V1L1
100
AcDbLine
  6
CONTINUOUS
 62
1
 10
2.9254258E+001
 20
1.2310311E+001
 11
2.9004258E+001
 21
1.2310311E+001
  0
LINE
  5
1c5
100
AcDbEntity
  8
V1L1
100
AcDbLine
  6
CONTINUOUS
 62
1
 10
2.9129258E+001
 20
1.2435311E+001
 11
2.9129258E+001
 21
1.2185311E+001
  0
LINE
  5
1c6
100
AcDbEntity
  8
V1L1
100
AcDbLine
  6
CONTINUOUS
 62
1
 10
2.9316758E+001
 20
1.2310311E+001
 11
2.9333758E+001
 21
1.2310311E+001
  0
LINE
  5
1c7
100
AcDbEntity
  8
V1L1
100
AcDbLine
  6
CONTINUOUS
 62
1
 10
2.9129258E+001
 20
1.2497811E+001
 11
2.9129258E+001
 21
1.2514811E+001
  0
LINE
  5
1c8
100
AcDbEntity
  8
V1L1
100
AcDbLine
  6
CONTINUOUS
 62
1
 10
2.8941758E+001
 20
1.2310311E+001
 11
2.8924758E+001
 21
1.2310311E+001
  0
LINE
  5
1c9
100
AcDbEntity
  8
V1L1
100
AcDbLine
  6
CONTINUOUS
 62
1
 10
2.9129258E+001
 20
1.2122811E+001
 11
2.9129258E+001
 21
1.2105811E+001
  0
LINE
  5
1ca
100
AcDbEntity
  8
V1L1
100
AcDbLine
  6
CONTINUOUS
 62
1
 10
2.9258574E+001
 20
5.310313
 11
2.9008574E+001
 21
5.310313
  0
LINE
  5
1cb
100
AcDbEntity
  8
V1L1
100
AcDbLine
  6
CONTINUOUS
 62
1
 10
2.9133574E+001
 20
5.435313
 11
2.9133574E+001
 21
5.185313
  0
LINE
  5
1cc
100
AcDbEntity
  8
V1L1
100
AcDbLine
  6
CONTINUOUS
 62
1
 10
2.9321074E+001
 20
5.310313
 11
2.9338074E+001
 21
5.310313
  0
LINE
  5
1cd
100
AcDbEntity
  8
V1L1
100
AcDbLine
  6
CONTINUOUS
 62
1
 10
2.9133574E+001
 20
5.497813
 11
2.9133574E+001
 21
5.514813
  0
LINE
  5
1ce
100
AcDbEntity
  8
V1L1
100
AcDbLine
  6
CONTINUOUS
 62
1
 10
2.8946074E+001
 20
5.310313
 11
2.8929074E+001
 21
5.310313
  0
LINE
  5
1cf
100
AcDbEntity
  8
V1L1
100
AcDbLine
  6
CONTINUOUS
 62
1
 10
2.9133574E+001
 20
5.122813
 11
2.9133574E+001
 21
5.105813
  0
LINE
  5
1d0
100
AcDbEntity
  8
V1L1
100
AcDbLine
  6
CONTINUOUS
 62
1
 10
2.9254258E+001
 20
4.810313
 11
2.9004258E+001
 21
4.810313
  0
LINE
  5
1d1
100
AcDbEntity
  8
V1L1
100
AcDbLine
  6
CONTINUOUS
 62
1
 10
2.9129258E+001
 20
4.935313
 11
2.9129258E+001
 21
4.685313
  0
LINE
  5
1d2
100
AcDbEntity
  8
V1L1
100
AcDbLine
  6
CONTINUOUS
 62
1
 10
2.9316758E+001
 20
4.810313
 11
2.9333758E+001
 21
4.810313
  0
LINE
  5
1d3
100
AcDbEntity
  8
V1L1
100
AcDbLine
  6
CONTINUOUS
 62
1
 10
2.9129258E+001
 20
4.997813
 11
2.9129258E+001
 21
5.014813
  0
LINE
  5
1d4
100
AcDbEntity
  8
V1L1
100
AcDbLine
  6
CONTINUOUS
 62
1
 10
2.8941758E+001
 20
4.810313
 11
2.8924758E+001
 21
4.810313
  0
LINE
  5
1d5
100
AcDbEntity
  8
V1L1
100
AcDbLine
  6
CONTINUOUS
 62
1
 10
2.9129258E+001
 20
4.622813
 11
2.9129258E+001
 21
4.605813
  0
LINE
  5
1d6
100
AcDbEntity
  8
V1L1
100
AcDbLine
  6
CONTINUOUS
 62
1
 10
7.5312577
 20
4.810313
 11
7.2812577
 21
4.810313
  0
LINE
  5
1d7
100
AcDbEntity
  8
V1L1
100
AcDbLine
  6
CONTINUOUS
 62
1
 10
7.4062577
 20
4.935313
 11
7.4062577
 21
4.685313
  0
LINE
  5
1d8
100
AcDbEntity
  8
V1L1
100
AcDbLine
  6
CONTINUOUS
 62
1
 10
7.5937577
 20
4.810313
 11
7.6107577
 21
4.810313
  0
LINE
  5
1d9
100
AcDbEntity
  8
V1L1
100
AcDbLine
  6
CONTINUOUS
 62
1
 10
7.4062577
 20
4.997813
 11
7.4062577
 21
5.014813
  0
LINE
  5
1da
100
AcDbEntity
  8
V1L1
100
AcDbLine
  6
CONTINUOUS
 62
1
 10
7.2187577
 20
4.810313
 11
7.2017577
 21
4.810313
  0
LINE
  5
1db
100
AcDbEntity
  8
V1L1
100
AcDbLine
  6
CONTINUOUS
 62
1
 10
7.4062577
 20
4.622813
 11
7.4062577
 21
4.605813
  0
LINE
  5
1dc
100
AcDbEntity
  8
V1L1
100
AcDbLine
  6
CONTINUOUS
 62
1
 10
7.5307577
 20
5.3100422
 11
7.2807577
 21
5.3100422
  0
LINE
  5
1dd
100
AcDbEntity
  8
V1L1
100
AcDbLine
  6
CONTINUOUS
 62
1
 10
7.4057577
 20
5.4350422
 11
7.4057577
 21
5.1850422
  0
LINE
  5
1de
100
AcDbEntity
  8
V1L1
100
AcDbLine
  6
CONTINUOUS
 62
1
 10
7.5932577
 20
5.3100422
 11
7.6102577
 21
5.3100422
  0
LINE
  5
1df
100
AcDbEntity
  8
V1L1
100
AcDbLine
  6
CONTINUOUS
 62
1
 10
7.4057577
 20
5.4975422
 11
7.4057577
 21
5.5145422
  0
LINE
  5
1e0
100
AcDbEntity
  8
V1L1
100
AcDbLine
  6
CONTINUOUS
 62
1
 10
7.2182577
 20
5.3100422
 11
7.2012577
 21
5.3100422
  0
LINE
  5
1e1
100
AcDbEntity
  8
V1L1
100
AcDbLine
  6
CONTINUOUS
 62
1
 10
7.4057577
 20
5.1225422
 11
7.4057577
 21
5.1055422
  0
LINE
  5
1e2
100
AcDbEntity
  8
V1L1
100
AcDbLine
  6
CONTINUOUS
 62
1
 10
7.5312577
 20
1.2310311E+001
 11
7.2812577
 21
1.2310311E+001
  0
LINE
  5
1e3
100
AcDbEntity
  8
V1L1
100
AcDbLine
  6
CONTINUOUS
 62
1
 10
7.4062577
 20
1.2435311E+001
 11
7.4062577
 21
1.2185311E+001
  0
LINE
  5
1e4
100
AcDbEntity
  8
V1L1
100
AcDbLine
  6
CONTINUOUS
 62
1
 10
7.5937577
 20
1.2310311E+001
 11
7.6107577
 21
1.2310311E+001
  0
LINE
  5
1e5
100
AcDbEntity
  8
V1L1
100
AcDbLine
  6
CONTINUOUS
 62
1
 10
7.4062577
 20
1.2497811E+001
 11
7.4062577
 21
1.2514811E+001
  0
LINE
  5
1e6
100
AcDbEntity
  8
V1L1
100
AcDbLine
  6
CONTINUOUS
 62
1
 10
7.2187577
 20
1.2310311E+001
 11
7.2017577
 21
1.2310311E+001
  0
LINE
  5
1e7
100
AcDbEntity
  8
V1L1
100
AcDbLine
  6
CONTINUOUS
 62
1
 10
7.4062577
 20
1.2122811E+001
 11
7.4062577
 21
1.2105811E+001
  0
LINE
  5
1e8
100
AcDbEntity
  8
V1L1
100
AcDbLine
  6
CONTINUOUS
 62
1
 10
7.5267577
 20
1.6060311E+001
 11
7.2767577
 21
1.6060311E+001
  0
LINE
  5
1e9
100
AcDbEntity
  8
V1L1
100
AcDbLine
  6
CONTINUOUS
 62
1
 10
7.4017577
 20
1.6185311E+001
 11
7.4017577
 21
1.5935311E+001
  0
LINE
  5
1ea
100
AcDbEntity
  8
V1L1
100
AcDbLine
  6
CONTINUOUS
 62
1
 10
7.5892577
 20
1.6060311E+001
 11
7.6062577
 21
1.6060311E+001
  0
LINE
  5
1eb
100
AcDbEntity
  8
V1L1
100
AcDbLine
  6
CONTINUOUS
 62
1
 10
7.4017577
 20
1.6247811E+001
 11
7.4017577
 21
1.6264811E+001
  0
LINE
  5
1ec
100
AcDbEntity
  8
V1L1
100
AcDbLine
  6
CONTINUOUS
 62
1
 10
7.2142577
 20
1.6060311E+001
 11
7.1972577
 21
1.6060311E+001
  0
LINE
  5
1ed
100
AcDbEntity
  8
V1L1
100
AcDbLine
  6
CONTINUOUS
 62
1
 10
7.4017577
 20
1.5872811E+001
 11
7.4017577
 21
1.5855811E+001
  0
LINE
  5
1ee
100
AcDbEntity
  8
V1L1
100
AcDbLine
  6
CONTINUOUS
 62
1
 10
7.5312577
 20
1.9810311E+001
 11
7.2812577
 21
1.9810311E+001
  0
LINE
  5
1ef
100
AcDbEntity
  8
V1L1
100
AcDbLine
  6
CONTINUOUS
 62
1
 10
7.4062577
 20
1.9935311E+001
 11
7.4062577
 21
1.9685311E+001
  0
LINE
  5
1f0
100
AcDbEntity
  8
V1L1
100
AcDbLine
  6
CONTINUOUS
 62
1
 10
7.5937577
 20
1.9810311E+001
 11
7.6107577
 21
1.9810311E+001
  0
LINE
  5
1f1
100
AcDbEntity
  8
V1L1
100
AcDbLine
  6
CONTINUOUS
 62
1
 10
7.4062577
 20
1.9997811E+001
 11
7.4062577
 21
2.0014811E+001
  0
LINE
  5
1f2
100
AcDbEntity
  8
V1L1
100
AcDbLine
  6
CONTINUOUS
 62
1
 10
7.2187577
 20
1.9810311E+001
 11
7.2017577
 21
1.9810311E+001
  0
LINE
  5
1f3
100
AcDbEntity
  8
V1L1
100
AcDbLine
  6
CONTINUOUS
 62
1
 10
7.4062577
 20
1.9622811E+001
 11
7.4062577
 21
1.9605811E+001
  0
LINE
  5
1f4
100
AcDbEntity
  8
V1L1
100
AcDbLine
  6
CONTINUOUS
 62
1
 10
7.5309897
 20
2.6810475E+001
 11
7.2809897
 21
2.6810475E+001
  0
LINE
  5
1f5
100
AcDbEntity
  8
V1L1
100
AcDbLine
  6
CONTINUOUS
 62
1
 10
7.4059897
 20
2.6935475E+001
 11
7.4059897
 21
2.6685475E+001
  0
LINE
  5
1f6
100
AcDbEntity
  8
V1L1
100
AcDbLine
  6
CONTINUOUS
 62
1
 10
7.5934897
 20
2.6810475E+001
 11
7.6104897
 21
2.6810475E+001
  0
LINE
  5
1f7
100
AcDbEntity
  8
V1L1
100
AcDbLine
  6
CONTINUOUS
 62
1
 10
7.4059897
 20
2.6997975E+001
 11
7.4059897
 21
2.7014975E+001
  0
LINE
  5
1f8
100
AcDbEntity
  8
V1L1
100
AcDbLine
  6
CONTINUOUS
 62
1
 10
7.2184897
 20
2.6810475E+001
 11
7.2014897
 21
2.6810475E+001
  0
LINE
  5
1f9
100
AcDbEntity
  8
V1L1
100
AcDbLine
  6
CONTINUOUS
 62
1
 10
7.4059897
 20
2.6622975E+001
 11
7.4059897
 21
2.6605975E+001
  0
LINE
  5
1fa
100
AcDbEntity
  8
V1L1
100
AcDbLine
  6
CONTINUOUS
 62
1
 10
7.5312577
 20
2.7310311E+001
 11
7.2812577
 21
2.7310311E+001
  0
LINE
  5
1fb
100
AcDbEntity
  8
V1L1
100
AcDbLine
  6
CONTINUOUS
 62
1
 10
7.4062577
 20
2.7435311E+001
 11
7.4062577
 21
2.7185311E+001
  0
LINE
  5
1fc
100
AcDbEntity
  8
V1L1
100
AcDbLine
  6
CONTINUOUS
 62
1
 10
7.5937577
 20
2.7310311E+001
 11
7.6107577
 21
2.7310311E+001
  0
LINE
  5
1fd
100
AcDbEntity
  8
V1L1
100
AcDbLine
  6
CONTINUOUS
 62
1
 10
7.4062577
 20
2.7497811E+001
 11
7.4062577
 21
2.7514811E+001
  0
LINE
  5
1fe
100
AcDbEntity
  8
V1L1
100
AcDbLine
  6
CONTINUOUS
 62
1
 10
7.2187577
 20
2.7310311E+001
 11
7.2017577
 21
2.7310311E+001
  0
LINE
  5
1ff
100
AcDbEntity
  8
V1L1
100
AcDbLine
  6
CONTINUOUS
 62
1
 10
7.4062577
 20
2.7122811E+001
 11
7.4062577
 21
2.7105811E+001
  0
TEXT
  5
200
100
AcDbEntity
  8
V1L1
100
AcDbText
  6
CONTINUOUS
 62
1
 10
2.1567269E+001
 20
2.2819913E+001
 40
1.0
  1
CUTOUT
100
AcDbText
  0
TEXT
  5
201
100
AcDbEntity
  8
V1L1
100
AcDbText
  6
CONTINUOUS
 62
1
 10
1.1491651E+001
 20
8.16942
 40
1.0
  1
CUTOUT
100
AcDbText
  0
TEXT
  5
202
100
AcDbEntity
  8
V1L1
100
AcDbText
  6
CONTINUOUS
 62
1
 10
5.2828916
 20
1.4704956
 40
1.0
  1
MOUNTING PLAN REAR BRACKETS
100
AcDbText
  0
INSERT
  5
203
100
AcDbEntity
100
AcDbBlockReference
  2
*TX61
  8
V1L1
 10
4.08471
 20
3.4474952E+001
  0
ENDSEC
  0
SECTION
  2
OBJECTS
  0
DICTIONARY
  5
204
100
AcDbDictionary
  3
ACAD_GROUP
350
205
  3
ACAD_MLINESTYLE
350
206
  0
DICTIONARY
  5
205
102
{ACAD_REACTORS
330
204
102
}
100
AcDbDictionary
  0
DICTIONARY
  5
206
102
{ACAD_REACTORS
330
204
102
}
100
AcDbDictionary
  3
STANDARD
350
207
  0
MLINESTYLE
  5
207
102
{ACAD_REACTORS
330
206
102
}
100
AcDbMlineStyle
  2
STANDARD
 70
0
  3

 62
256
 51
9.0E+001
 52
9.0E+001
 71
2
 49
5.0E-001
 62
256
  6
BYLAYER
 49
-5.0E-001
 62
256
  6
BYLAYER
  0
ENDSEC
  0
EOF
